  0
SECTION
  2
HEADER
  9
$ACADVER
  1
AC1027
  9
$ACADMAINTVER
 70
     8
  9
$DWGCODEPAGE
  3
ANSI_1252
  9
$REQUIREDVERSIONS
160
                 0
  9
$INSBASE
 10
0.0
 20
0.0
 30
0.0
  9
$EXTMIN
 10
-0.5
 20
-0.5
 30
-0.5
  9
$EXTMAX
 10
5.0
 20
5.0
 30
5.0
  9
$LIMMIN
 10
-0.5
 20
-0.5
  9
$LIMMAX
 10
5.0
 20
5.0
  9
$ORTHOMODE
 70
     0
  9
$REGENMODE
 70
     1
  9
$FILLMODE
 70
     1
  9
$QTEXTMODE
 70
     0
  9
$MIRRTEXT
 70
     1
  9
$LTSCALE
 40
1.0
  9
$ATTMODE
 70
     1
  9
$TEXTSIZE
 40
0.2
  9
$TRACEWID
 40
0.05
  9
$TEXTSTYLE
  7
Standard
  9
$CLAYER
  8
0
  9
$CELTYPE
  6
ByLayer
  9
$CECOLOR
 62
   256
  9
$CELTSCALE
 40
1.0
  9
$DISPSILH
 70
     0
  9
$DIMSCALE
 40
1.0
  9
$DIMASZ
 40
0.18
  9
$DIMEXO
 40
0.0625
  9
$DIMDLI
 40
0.38
  9
$DIMRND
 40
0.0
  9
$DIMDLE
 40
0.0
  9
$DIMEXE
 40
0.18
  9
$DIMTP
 40
0.0
  9
$DIMTM
 40
0.0
  9
$DIMTXT
 40
0.18
  9
$DIMCEN
 40
0.09
  9
$DIMTSZ
 40
0.0
  9
$DIMTOL
 70
     0
  9
$DIMLIM
 70
     0
  9
$DIMTIH
 70
     1
  9
$DIMTOH
 70
     1
  9
$DIMSE1
 70
     0
  9
$DIMSE2
 70
     0
  9
$DIMTAD
 70
     0
  9
$DIMZIN
 70
     0
  9
$DIMBLK
  1

  9
$DIMASO
 70
     1
  9
$DIMSHO
 70
     1
  9
$DIMPOST
  1

  9
$DIMAPOST
  1

  9
$DIMALT
 70
     0
  9
$DIMALTD
 70
     2
  9
$DIMALTF
 40
25.4
  9
$DIMLFAC
 40
1.0
  9
$DIMTOFL
 70
     0
  9
$DIMTVP
 40
0.0
  9
$DIMTIX
 70
     0
  9
$DIMSOXD
 70
     0
  9
$DIMSAH
 70
     0
  9
$DIMBLK1
  1

  9
$DIMBLK2
  1

  9
$DIMSTYLE
  2
Standard
  9
$DIMCLRD
 70
     0
  9
$DIMCLRE
 70
     0
  9
$DIMCLRT
 70
     0
  9
$DIMTFAC
 40
1.0
  9
$DIMGAP
 40
0.09
  9
$DIMJUST
 70
     0
  9
$DIMSD1
 70
     0
  9
$DIMSD2
 70
     0
  9
$DIMTOLJ
 70
     1
  9
$DIMTZIN
 70
     0
  9
$DIMALTZ
 70
     0
  9
$DIMALTTZ
 70
     0
  9
$DIMUPT
 70
     0
  9
$DIMDEC
 70
     4
  9
$DIMTDEC
 70
     4
  9
$DIMALTU
 70
     2
  9
$DIMALTTD
 70
     2
  9
$DIMTXSTY
  7
Standard
  9
$DIMAUNIT
 70
     0
  9
$DIMADEC
 70
     0
  9
$DIMALTRND
 40
0.0
  9
$DIMAZIN
 70
     0
  9
$DIMDSEP
 70
    46
  9
$DIMATFIT
 70
     3
  9
$DIMFRAC
 70
     0
  9
$DIMLDRBLK
  1

  9
$DIMLUNIT
 70
     2
  9
$DIMLWD
 70
    -2
  9
$DIMLWE
 70
    -2
  9
$DIMTMOVE
 70
     0
  9
$DIMFXL
 40
1.0
  9
$DIMFXLON
 70
     0
  9
$DIMJOGANG
 40
0.785398
  9
$DIMTFILL
 70
     0
  9
$DIMTFILLCLR
 70
     0
  9
$DIMARCSYM
 70
     0
  9
$DIMLTYPE
  6

  9
$DIMLTEX1
  6

  9
$DIMLTEX2
  6

  9
$DIMTXTDIRECTION
 70
     0
  9
$LUNITS
 70
     2
  9
$LUPREC
 70
     4
  9
$SKETCHINC
 40
0.1
  9
$FILLETRAD
 40
0.5
  9
$AUNITS
 70
     0
  9
$AUPREC
 70
     0
  9
$MENU
  1
.
  9
$ELEVATION
 40
0.0
  9
$PELEVATION
 40
0.0
  9
$THICKNESS
 40
0.0
  9
$LIMCHECK
 70
     0
  9
$CHAMFERA
 40
0.0
  9
$CHAMFERB
 40
0.0
  9
$CHAMFERC
 40
0.0
  9
$CHAMFERD
 40
0.0
  9
$SKPOLY
 70
     0
  9
$TDCREATE
 40
2457438.36504081
  9
$TDUCREATE
 40
2457438.323374143
  9
$TDUPDATE
 40
2457438.365042072
  9
$TDUUPDATE
 40
2457438.323375405
  9
$TDINDWG
 40
0.0000000116
  9
$TDUSRTIMER
 40
0.0000000116
  9
$USRTIMER
 70
     1
  9
$ANGBASE
 50
0.0
  9
$ANGDIR
 70
     0
  9
$PDMODE
 70
     0
  9
$PDSIZE
 40
0.0
  9
$PLINEWID
 40
0.0
  9
$SPLFRAME
 70
     0
  9
$SPLINETYPE
 70
     6
  9
$SPLINESEGS
 70
     8
  9
$HANDSEED
  5
149
  9
$SURFTAB1
 70
     6
  9
$SURFTAB2
 70
     6
  9
$SURFTYPE
 70
     6
  9
$SURFU
 70
     6
  9
$SURFV
 70
     6
  9
$UCSBASE
  2

  9
$UCSNAME
  2

  9
$UCSORG
 10
0.0
 20
0.0
 30
0.0
  9
$UCSXDIR
 10
1.0
 20
0.0
 30
0.0
  9
$UCSYDIR
 10
0.0
 20
1.0
 30
0.0
  9
$UCSORTHOREF
  2

  9
$UCSORTHOVIEW
 70
     0
  9
$UCSORGTOP
 10
0.0
 20
0.0
 30
0.0
  9
$UCSORGBOTTOM
 10
0.0
 20
0.0
 30
0.0
  9
$UCSORGLEFT
 10
0.0
 20
0.0
 30
0.0
  9
$UCSORGRIGHT
 10
0.0
 20
0.0
 30
0.0
  9
$UCSORGFRONT
 10
0.0
 20
0.0
 30
0.0
  9
$UCSORGBACK
 10
0.0
 20
0.0
 30
0.0
  9
$PUCSBASE
  2

  9
$PUCSNAME
  2

  9
$PUCSORG
 10
0.0
 20
0.0
 30
0.0
  9
$PUCSXDIR
 10
1.0
 20
0.0
 30
0.0
  9
$PUCSYDIR
 10
0.0
 20
1.0
 30
0.0
  9
$PUCSORTHOREF
  2

  9
$PUCSORTHOVIEW
 70
     0
  9
$PUCSORGTOP
 10
0.0
 20
0.0
 30
0.0
  9
$PUCSORGBOTTOM
 10
0.0
 20
0.0
 30
0.0
  9
$PUCSORGLEFT
 10
0.0
 20
0.0
 30
0.0
  9
$PUCSORGRIGHT
 10
0.0
 20
0.0
 30
0.0
  9
$PUCSORGFRONT
 10
0.0
 20
0.0
 30
0.0
  9
$PUCSORGBACK
 10
0.0
 20
0.0
 30
0.0
  9
$USERI1
 70
     0
  9
$USERI2
 70
     0
  9
$USERI3
 70
     0
  9
$USERI4
 70
     0
  9
$USERI5
 70
     0
  9
$USERR1
 40
0.0
  9
$USERR2
 40
0.0
  9
$USERR3
 40
0.0
  9
$USERR4
 40
0.0
  9
$USERR5
 40
0.0
  9
$WORLDVIEW
 70
     1
  9
$SHADEDGE
 70
     3
  9
$SHADEDIF
 70
    70
  9
$TILEMODE
 70
     1
  9
$MAXACTVP
 70
    64
  9
$PINSBASE
 10
0.0
 20
0.0
 30
0.0
  9
$PLIMCHECK
 70
     0
  9
$PEXTMIN
 10
-0.5
 20
-0.5
 30
-0.5
  9
$PEXTMAX
 10
5.0
 20
5.0
 30
5.0
  9
$PLIMMIN
 10
-0.5
 20
-0.5
  9
$PLIMMAX
 10
5.0
 20
5.0
  9
$UNITMODE
 70
     0
  9
$VISRETAIN
 70
     1
  9
$PLINEGEN
 70
     0
  9
$PSLTSCALE
 70
     1
  9
$TREEDEPTH
 70
  3020
  9
$CMLSTYLE
  2
Standard
  9
$CMLJUST
 70
     0
  9
$CMLSCALE
 40
1.0
  9
$PROXYGRAPHICS
 70
     1
  9
$MEASUREMENT
 70
     1
  9
$CELWEIGHT
370
    25
  9
$ENDCAPS
280
     0
  9
$JOINSTYLE
280
     0
  9
$LWDISPLAY
290
     0
  9
$INSUNITS
 70
     4
  9
$HYPERLINKBASE
  1

  9
$STYLESHEET
  1

  9
$XEDIT
290
     1
  9
$CEPSNTYPE
380
     0
  9
$PSTYLEMODE
290
     1
  9
$FINGERPRINTGUID
  2
{DA922985-9DE1-4728-A9E5-4F52349E7710}
  9
$VERSIONGUID
  2
{FAEB1C32-E019-11D5-929B-00C0DF256EC4}
  9
$EXTNAMES
290
     1
  9
$PSVPSCALE
 40
0.0
  9
$OLESTARTUP
290
     0
  9
$SORTENTS
280
   127
  9
$INDEXCTL
280
     0
  9
$HIDETEXT
280
     1
  9
$XCLIPFRAME
280
     2
  9
$HALOGAP
280
     0
  9
$OBSCOLOR
 70
   257
  9
$OBSLTYPE
280
     0
  9
$INTERSECTIONDISPLAY
280
     0
  9
$INTERSECTIONCOLOR
 70
   257
  9
$DIMASSOC
280
     2
  9
$PROJECTNAME
  1

  9
$CAMERADISPLAY
290
     0
  9
$LENSLENGTH
 40
50.0
  9
$CAMERAHEIGHT
 40
0.0
  9
$STEPSPERSEC
 40
2.0
  9
$STEPSIZE
 40
6.0
  9
$3DDWFPREC
 40
2.0
  9
$PSOLWIDTH
 40
0.25
  9
$PSOLHEIGHT
 40
4.0
  9
$LOFTANG1
 40
1.570796
  9
$LOFTANG2
 40
1.570796
  9
$LOFTMAG1
 40
0.0
  9
$LOFTMAG2
 40
0.0
  9
$LOFTPARAM
 70
     7
  9
$LOFTNORMALS
280
     1
  9
$LATITUDE
 40
37.795
  9
$LONGITUDE
 40
-122.394
  9
$NORTHDIRECTION
 40
0.0
  9
$TIMEZONE
 70
 -8000
  9
$LIGHTGLYPHDISPLAY
280
     1
  9
$TILEMODELIGHTSYNCH
280
     1
  9
$CMATERIAL
347
44
  9
$SOLIDHIST
280
     1
  9
$SHOWHIST
280
     1
  9
$DWFFRAME
280
     2
  9
$DGNFRAME
280
     2
  9
$REALWORLDSCALE
290
     1
  9
$INTERFERECOLOR
 62
   256
  9
$CSHADOW
280
     0
  9
$SHADOWPLANELOCATION
 40
0.0
  0
ENDSEC
  0
SECTION
  2
CLASSES
  0
CLASS
  1
ACDBDICTIONARYWDFLT
  2
AcDbDictionaryWithDefault
  3
ObjectDBX Classes
 90
        0
 91
        4
280
     0
281
     0
  0
CLASS
  1
VISUALSTYLE
  2
AcDbVisualStyle
  3
ObjectDBX Classes
 90
     4095
 91
        4
280
     0
281
     0
  0
CLASS
  1
MATERIAL
  2
AcDbMaterial
  3
ObjectDBX Classes
 90
     1153
 91
        4
280
     0
281
     0
  0
CLASS
  1
SCALE
  2
AcDbScale
  3
ObjectDBX Classes
 90
     1153
 91
        4
280
     0
281
     0
  0
CLASS
  1
SUN
  2
AcDbSun
  3
SCENEOE
 90
     1153
 91
        4
280
     0
281
     0
  0
CLASS
  1
DICTIONARYVAR
  2
AcDbDictionaryVar
  3
ObjectDBX Classes
 90
        0
 91
        4
280
     0
281
     0
  0
ENDSEC
  0
SECTION
  2
TABLES
  0
TABLE
  2
VPORT
  5
8
330
0
100
AcDbSymbolTable
 70
    17
  0
VPORT
  5
29
330
8
100
AcDbSymbolTableRecord
100
AcDbViewportTableRecord
  2
DUMMY
 70
     0
 10
0.0
 20
0.0
 11
1.0
 21
1.0
 12
10.429907
 22
4.5
 13
0.0
 23
0.0
 14
0.5
 24
0.5
 15
0.5
 25
0.5
 16
0.0
 26
0.0
 36
1.0
 17
0.0
 27
0.0
 37
0.0
 40
9.0
 41
1.972973
 42
50.0
 43
0.0
 44
0.0
 50
0.0
 51
0.0
 71
     0
 72
   100
 73
     1
 74
     3
 75
     0
 76
     0
 77
     0
 78
     0
281
     0
 65
     1
110
0.0
120
0.0
130
0.0
111
1.0
121
0.0
131
0.0
112
0.0
122
1.0
132
0.0
 79
     0
146
0.0
 60
     3
 61
     5
292
     1
282
     1
141
0.0
142
0.0
 63
   250
361
69
  0
VPORT
  5
132
330
8
100
AcDbSymbolTableRecord
100
AcDbViewportTableRecord
  2
*ACTIVE
 70
     0
 10
0.0
 20
0.0
 11
1.0
 21
1.0
 12
0.0
 22
0.0
 13
0.0
 23
0.0
 14
0.5
 24
0.5
 15
0.5
 25
0.5
 16
0.7188730927569433
 26
-0.5850486126764433
 36
0.3754192287502549
 17
0.0
 27
0.0
 37
0.0
 40
1649.107221
 41
0.010767
 42
50.0
 43
815.21363
 44
-815.21363
 50
0.0
 51
0.0
 71
     0
 72
   100
 73
     1
 74
     3
 75
     0
 76
     0
 77
     0
 78
     0
281
     0
 65
     1
110
0.0
120
0.0
130
0.0
111
1.0
121
0.0
131
0.0
112
0.0
122
1.0
132
0.0
 79
     0
146
0.0
 60
     3
 61
     5
292
     1
282
     1
141
0.0
142
0.0
 63
   256
361
133
  0
VPORT
  5
134
330
8
100
AcDbSymbolTableRecord
100
AcDbViewportTableRecord
  2
L1
 70
     0
 10
0.0
 20
0.0
 11
1.0
 21
1.0
 12
0.0
 22
0.0
 13
0.0
 23
0.0
 14
0.5
 24
0.5
 15
0.5
 25
0.5
 16
0.7188730927569433
 26
-0.5850486126764433
 36
0.3754192287502549
 17
0.0
 27
0.0
 37
0.0
 40
1649.107221
 41
0.010767
 42
50.0
 43
815.21363
 44
-815.21363
 50
0.0
 51
0.0
 71
     0
 72
   100
 73
     1
 74
     3
 75
     0
 76
     0
 77
     0
 78
     0
281
     0
 65
     1
110
0.0
120
0.0
130
0.0
111
1.0
121
0.0
131
0.0
112
0.0
122
1.0
132
0.0
 79
     0
146
0.0
 60
     3
 61
     5
292
     1
282
     1
141
0.0
142
0.0
 63
   256
  0
VPORT
  5
135
330
8
100
AcDbSymbolTableRecord
100
AcDbViewportTableRecord
  2
L2
 70
     0
 10
0.0
 20
0.0
 11
0.5
 21
1.0
 12
0.0
 22
0.0
 13
0.0
 23
0.0
 14
0.5
 24
0.5
 15
0.5
 25
0.5
 16
0.0
 26
-1.0
 36
0.0
 17
0.0
 27
0.0
 37
0.0
 40
1590.660741
 41
0.011163
 42
50.0
 43
820.097798
 44
-820.097798
 50
0.0
 51
0.0
 71
     0
 72
   100
 73
     1
 74
     3
 75
     0
 76
     0
 77
     0
 78
     0
281
     0
 65
     1
110
0.0
120
0.0
130
0.0
111
1.0
121
0.0
131
0.0
112
0.0
122
1.0
132
0.0
 79
     0
146
0.0
 60
     3
 61
     5
292
     1
282
     1
141
0.0
142
0.0
 63
   256
  0
VPORT
  5
136
330
8
100
AcDbSymbolTableRecord
100
AcDbViewportTableRecord
  2
L2
 70
     0
 10
0.5
 20
0.0
 11
1.0
 21
1.0
 12
0.0
 22
0.0
 13
0.0
 23
0.0
 14
0.5
 24
0.5
 15
0.5
 25
0.5
 16
1.0
 26
0.0
 36
0.0
 17
0.0
 27
0.0
 37
0.0
 40
1590.660741
 41
0.011163
 42
50.0
 43
804.790089
 44
-804.790089
 50
0.0
 51
0.0
 71
     0
 72
   100
 73
     1
 74
     3
 75
     0
 76
     0
 77
     0
 78
     0
281
     0
 65
     1
110
0.0
120
0.0
130
0.0
111
1.0
121
0.0
131
0.0
112
0.0
122
1.0
132
0.0
 79
     0
146
0.0
 60
     3
 61
     5
292
     1
282
     1
141
0.0
142
0.0
 63
   256
  0
VPORT
  5
137
330
8
100
AcDbSymbolTableRecord
100
AcDbViewportTableRecord
  2
L3
 70
     0
 10
0.0
 20
0.5
 11
1.0
 21
1.0
 12
0.0
 22
0.0
 13
0.0
 23
0.0
 14
0.5
 24
0.5
 15
0.5
 25
0.5
 16
0.0
 26
0.0
 36
1.0
 17
0.0
 27
0.0
 37
0.0
 40
246.0625
 41
0.072164
 42
50.0
 43
795.33037
 44
-795.33037
 50
0.0
 51
0.0
 71
     0
 72
   100
 73
     1
 74
     3
 75
     0
 76
     0
 77
     0
 78
     0
281
     0
 65
     1
110
0.0
120
0.0
130
0.0
111
1.0
121
0.0
131
0.0
112
0.0
122
1.0
132
0.0
 79
     0
146
0.0
 60
     3
 61
     5
292
     1
282
     1
141
0.0
142
0.0
 63
   256
  0
VPORT
  5
138
330
8
100
AcDbSymbolTableRecord
100
AcDbViewportTableRecord
  2
L3
 70
     0
 10
0.0
 20
0.0
 11
1.0
 21
0.5
 12
0.0
 22
0.0
 13
0.0
 23
0.0
 14
0.5
 24
0.5
 15
0.5
 25
0.5
 16
0.0
 26
-1.0
 36
0.0
 17
0.0
 27
0.0
 37
0.0
 40
1590.660741
 41
0.011163
 42
50.0
 43
820.097798
 44
-820.097798
 50
0.0
 51
0.0
 71
     0
 72
   100
 73
     1
 74
     3
 75
     0
 76
     0
 77
     0
 78
     0
281
     0
 65
     1
110
0.0
120
0.0
130
0.0
111
1.0
121
0.0
131
0.0
112
0.0
122
1.0
132
0.0
 79
     0
146
0.0
 60
     3
 61
     5
292
     1
282
     1
141
0.0
142
0.0
 63
   256
  0
VPORT
  5
139
330
8
100
AcDbSymbolTableRecord
100
AcDbViewportTableRecord
  2
L4
 70
     0
 10
0.0
 20
0.5
 11
0.5
 21
1.0
 12
0.0
 22
0.0
 13
0.0
 23
0.0
 14
0.5
 24
0.5
 15
0.5
 25
0.5
 16
0.0
 26
0.0
 36
1.0
 17
0.0
 27
0.0
 37
0.0
 40
246.0625
 41
0.072164
 42
50.0
 43
795.33037
 44
-795.33037
 50
0.0
 51
0.0
 71
     0
 72
   100
 73
     1
 74
     3
 75
     0
 76
     0
 77
     0
 78
     0
281
     0
 65
     1
110
0.0
120
0.0
130
0.0
111
1.0
121
0.0
131
0.0
112
0.0
122
1.0
132
0.0
 79
     0
146
0.0
 60
     3
 61
     5
292
     1
282
     1
141
0.0
142
0.0
 63
   256
  0
VPORT
  5
13A
330
8
100
AcDbSymbolTableRecord
100
AcDbViewportTableRecord
  2
L4
 70
     0
 10
0.0
 20
0.0
 11
0.5
 21
0.5
 12
0.0
 22
0.0
 13
0.0
 23
0.0
 14
0.5
 24
0.5
 15
0.5
 25
0.5
 16
0.0
 26
-1.0
 36
0.0
 17
0.0
 27
0.0
 37
0.0
 40
1590.660741
 41
0.011163
 42
50.0
 43
820.097798
 44
-820.097798
 50
0.0
 51
0.0
 71
     0
 72
   100
 73
     1
 74
     3
 75
     0
 76
     0
 77
     0
 78
     0
281
     0
 65
     1
110
0.0
120
0.0
130
0.0
111
1.0
121
0.0
131
0.0
112
0.0
122
1.0
132
0.0
 79
     0
146
0.0
 60
     3
 61
     5
292
     1
282
     1
141
0.0
142
0.0
 63
   256
  0
VPORT
  5
13B
330
8
100
AcDbSymbolTableRecord
100
AcDbViewportTableRecord
  2
L4
 70
     0
 10
0.5
 20
0.0
 11
1.0
 21
0.5
 12
0.0
 22
0.0
 13
0.0
 23
0.0
 14
0.5
 24
0.5
 15
0.5
 25
0.5
 16
1.0
 26
0.0
 36
0.0
 17
0.0
 27
0.0
 37
0.0
 40
1590.660741
 41
0.011163
 42
50.0
 43
804.790089
 44
-804.790089
 50
0.0
 51
0.0
 71
     0
 72
   100
 73
     1
 74
     3
 75
     0
 76
     0
 77
     0
 78
     0
281
     0
 65
     1
110
0.0
120
0.0
130
0.0
111
1.0
121
0.0
131
0.0
112
0.0
122
1.0
132
0.0
 79
     0
146
0.0
 60
     3
 61
     5
292
     1
282
     1
141
0.0
142
0.0
 63
   256
  0
VPORT
  5
13C
330
8
100
AcDbSymbolTableRecord
100
AcDbViewportTableRecord
  2
L4
 70
     0
 10
0.5
 20
0.5
 11
1.0
 21
1.0
 12
0.0
 22
0.0
 13
0.0
 23
0.0
 14
0.5
 24
0.5
 15
0.5
 25
0.5
 16
0.5773502691896258
 26
-0.5773502691896258
 36
0.5773502691896258
 17
0.0
 27
0.0
 37
0.0
 40
1562.54338
 41
0.011364
 42
50.0
 43
813.982877
 44
-813.982877
 50
0.0
 51
0.0
 71
     0
 72
   100
 73
     1
 74
     3
 75
     0
 76
     0
 77
     0
 78
     0
281
     0
 65
     1
110
0.0
120
0.0
130
0.0
111
1.0
121
0.0
131
0.0
112
0.0
122
1.0
132
0.0
 79
     0
146
0.0
 60
     3
 61
     5
292
     1
282
     1
141
0.0
142
0.0
 63
   256
  0
VPORT
  5
13D
330
8
100
AcDbSymbolTableRecord
100
AcDbViewportTableRecord
  2
L6
 70
     0
 10
0.0
 20
0.5
 11
0.333333
 21
1.0
 12
0.0
 22
0.0
 13
0.0
 23
0.0
 14
0.5
 24
0.5
 15
0.5
 25
0.5
 16
0.7188730927569433
 26
-0.5850486126764433
 36
0.3754192287502549
 17
0.0
 27
0.0
 37
0.0
 40
1649.107221
 41
0.010767
 42
50.0
 43
815.21363
 44
-815.21363
 50
0.0
 51
0.0
 71
     0
 72
   100
 73
     1
 74
     3
 75
     0
 76
     0
 77
     0
 78
     0
281
     0
 65
     1
110
0.0
120
0.0
130
0.0
111
1.0
121
0.0
131
0.0
112
0.0
122
1.0
132
0.0
 79
     0
146
0.0
 60
     3
 61
     5
292
     1
282
     1
141
0.0
142
0.0
 63
   256
  0
VPORT
  5
13E
330
8
100
AcDbSymbolTableRecord
100
AcDbViewportTableRecord
  2
L6
 70
     0
 10
0.0
 20
0.0
 11
0.333333
 21
0.5
 12
0.0
 22
0.0
 13
0.0
 23
0.0
 14
0.5
 24
0.5
 15
0.5
 25
0.5
 16
-1.0
 26
0.0
 36
0.0
 17
0.0
 27
0.0
 37
0.0
 40
1590.660741
 41
0.011163
 42
50.0
 43
804.790089
 44
-804.790089
 50
0.0
 51
0.0
 71
     0
 72
   100
 73
     1
 74
     3
 75
     0
 76
     0
 77
     0
 78
     0
281
     0
 65
     1
110
0.0
120
0.0
130
0.0
111
1.0
121
0.0
131
0.0
112
0.0
122
1.0
132
0.0
 79
     0
146
0.0
 60
     3
 61
     5
292
     1
282
     1
141
0.0
142
0.0
 63
   256
  0
VPORT
  5
13F
330
8
100
AcDbSymbolTableRecord
100
AcDbViewportTableRecord
  2
L6
 70
     0
 10
0.333333
 20
0.5
 11
0.666667
 21
1.0
 12
0.0
 22
0.0
 13
0.0
 23
0.0
 14
0.5
 24
0.5
 15
0.5
 25
0.5
 16
0.0
 26
0.0
 36
1.0
 17
0.0
 27
0.0
 37
0.0
 40
246.0625
 41
0.072164
 42
50.0
 43
795.33037
 44
-795.33037
 50
0.0
 51
0.0
 71
     0
 72
   100
 73
     1
 74
     3
 75
     0
 76
     0
 77
     0
 78
     0
281
     0
 65
     1
110
0.0
120
0.0
130
0.0
111
1.0
121
0.0
131
0.0
112
0.0
122
1.0
132
0.0
 79
     0
146
0.0
 60
     3
 61
     5
292
     1
282
     1
141
0.0
142
0.0
 63
   256
  0
VPORT
  5
140
330
8
100
AcDbSymbolTableRecord
100
AcDbViewportTableRecord
  2
L6
 70
     0
 10
0.333333
 20
0.0
 11
0.666667
 21
0.5
 12
0.0
 22
0.0
 13
0.0
 23
0.0
 14
0.5
 24
0.5
 15
0.5
 25
0.5
 16
0.0
 26
-1.0
 36
0.0
 17
0.0
 27
0.0
 37
0.0
 40
1590.660741
 41
0.011163
 42
50.0
 43
820.097798
 44
-820.097798
 50
0.0
 51
0.0
 71
     0
 72
   100
 73
     1
 74
     3
 75
     0
 76
     0
 77
     0
 78
     0
281
     0
 65
     1
110
0.0
120
0.0
130
0.0
111
1.0
121
0.0
131
0.0
112
0.0
122
1.0
132
0.0
 79
     0
146
0.0
 60
     3
 61
     5
292
     1
282
     1
141
0.0
142
0.0
 63
   256
  0
VPORT
  5
141
330
8
100
AcDbSymbolTableRecord
100
AcDbViewportTableRecord
  2
L6
 70
     0
 10
0.666667
 20
0.5
 11
1.0
 21
1.0
 12
0.0
 22
0.0
 13
0.0
 23
0.0
 14
0.5
 24
0.5
 15
0.5
 25
0.5
 16
0.5773502691896258
 26
-0.5773502691896258
 36
0.5773502691896258
 17
0.0
 27
0.0
 37
0.0
 40
1562.54338
 41
0.011364
 42
50.0
 43
813.982877
 44
-813.982877
 50
0.0
 51
0.0
 71
     0
 72
   100
 73
     1
 74
     3
 75
     0
 76
     0
 77
     0
 78
     0
281
     0
 65
     1
110
0.0
120
0.0
130
0.0
111
1.0
121
0.0
131
0.0
112
0.0
122
1.0
132
0.0
 79
     0
146
0.0
 60
     3
 61
     5
292
     1
282
     1
141
0.0
142
0.0
 63
   256
  0
VPORT
  5
142
330
8
100
AcDbSymbolTableRecord
100
AcDbViewportTableRecord
  2
L6
 70
     0
 10
0.666667
 20
0.0
 11
1.0
 21
0.5
 12
0.0
 22
0.0
 13
0.0
 23
0.0
 14
0.5
 24
0.5
 15
0.5
 25
0.5
 16
1.0
 26
0.0
 36
0.0
 17
0.0
 27
0.0
 37
0.0
 40
1590.660741
 41
0.011163
 42
50.0
 43
804.790089
 44
-804.790089
 50
0.0
 51
0.0
 71
     0
 72
   100
 73
     1
 74
     3
 75
     0
 76
     0
 77
     0
 78
     0
281
     0
 65
     1
110
0.0
120
0.0
130
0.0
111
1.0
121
0.0
131
0.0
112
0.0
122
1.0
132
0.0
 79
     0
146
0.0
 60
     3
 61
     5
292
     1
282
     1
141
0.0
142
0.0
 63
   256
  0
ENDTAB
  0
TABLE
  2
LTYPE
  5
5
330
0
100
AcDbSymbolTable
 70
     6
  0
LTYPE
  5
14
330
5
100
AcDbSymbolTableRecord
100
AcDbLinetypeTableRecord
  2
ByBlock
 70
     0
  3

 72
    65
 73
     0
 40
0.0
  0
LTYPE
  5
15
330
5
100
AcDbSymbolTableRecord
100
AcDbLinetypeTableRecord
  2
ByLayer
 70
     0
  3

 72
    65
 73
     0
 40
0.0
  0
LTYPE
  5
16
330
5
100
AcDbSymbolTableRecord
100
AcDbLinetypeTableRecord
  2
Continuous
 70
     0
  3
Solid line
 72
    65
 73
     0
 40
0.0
  0
LTYPE
  5
6A
330
5
100
AcDbSymbolTableRecord
100
AcDbLinetypeTableRecord
  2
CENTER
 70
     0
  3
____ _ ____ _ ____ _ ____
 72
    65
 73
     4
 40
47.4
 49
22.0
 74
     4
 75
     0
340
0
 46
0.0
 50
0.0
 44
0.0
 45
0.0
 49
-8.5
 74
     4
 75
     0
340
0
 46
0.0
 50
0.0
 44
0.0
 45
0.0
 49
8.5
 74
     4
 75
     0
340
0
 46
0.0
 50
0.0
 44
0.0
 45
0.0
 49
-8.5
 74
     4
 75
     0
340
0
 46
0.0
 50
0.0
 44
0.0
 45
0.0
  0
LTYPE
  5
6B
330
5
100
AcDbSymbolTableRecord
100
AcDbLinetypeTableRecord
  2
DASHDOT
 70
     0
  3
_._._._._._._._._._._._._._._._.
 72
    65
 73
     4
 40
70.0
 49
31.0
 74
     4
 75
     0
340
0
 46
0.0
 50
0.0
 44
0.0
 45
0.0
 49
-13.0
 74
     4
 75
     0
340
0
 46
0.0
 50
0.0
 44
0.0
 45
0.0
 49
13.0
 74
     4
 75
     0
340
0
 46
0.0
 50
0.0
 44
0.0
 45
0.0
 49
-13.0
 74
     4
 75
     0
340
0
 46
0.0
 50
0.0
 44
0.0
 45
0.0
  0
LTYPE
  5
6C
330
5
100
AcDbSymbolTableRecord
100
AcDbLinetypeTableRecord
  2
DASHED
 70
     0
  3
__ __ __ __ __ __ __ __ __
 72
    65
 73
     2
 40
25.72
 49
12.86
 74
     4
 75
     0
340
0
 46
0.0
 50
0.0
 44
0.0
 45
0.0
 49
-12.86
 74
     4
 75
     0
340
0
 46
0.0
 50
0.0
 44
0.0
 45
0.0
  0
LTYPE
  5
6D
330
5
100
AcDbSymbolTableRecord
100
AcDbLinetypeTableRecord
  2
DOT
 70
     0
  3
.........................
 72
    65
 73
     2
 40
10.0
 49
0.0
 74
     4
 75
     0
340
0
 46
0.0
 50
0.0
 44
0.0
 45
0.0
 49
-10.0
 74
     4
 75
     0
340
0
 46
0.0
 50
0.0
 44
0.0
 45
0.0
  0
LTYPE
  5
6E
330
5
100
AcDbSymbolTableRecord
100
AcDbLinetypeTableRecord
  2
PHANTOM
 70
     0
  3
____ _ _ ____ _ _ _____ _ _ ____
 72
    65
 73
     6
 40
50.5
 49
18.0
 74
     4
 75
     0
340
0
 46
0.0
 50
0.0
 44
0.0
 45
0.0
 49
-6.5
 74
     4
 75
     0
340
0
 46
0.0
 50
0.0
 44
0.0
 45
0.0
 49
6.5
 74
     4
 75
     0
340
0
 46
0.0
 50
0.0
 44
0.0
 45
0.0
 49
-6.5
 74
     4
 75
     0
340
0
 46
0.0
 50
0.0
 44
0.0
 45
0.0
 49
6.5
 74
     4
 75
     0
340
0
 46
0.0
 50
0.0
 44
0.0
 45
0.0
 49
-6.5
 74
     4
 75
     0
340
0
 46
0.0
 50
0.0
 44
0.0
 45
0.0
  0
ENDTAB
  0
TABLE
  2
LAYER
  5
2
330
0
100
AcDbSymbolTable
 70
     2
  0
LAYER
  5
10
330
2
100
AcDbSymbolTableRecord
100
AcDbLayerTableRecord
  2
0
 70
     0
 62
     7
  6
Continuous
370
    -3
390
F
347
46
348
0
  0
LAYER
  5
70
330
2
100
AcDbSymbolTableRecord
100
AcDbLayerTableRecord
  2
2
 70
     0
 62
     7
420
 16777215
  6
Continuous
370
    -3
390
F
347
46
348
0
  0
ENDTAB
  0
TABLE
  2
STYLE
  5
3
330
0
100
AcDbSymbolTable
 70
     1
  0
STYLE
  5
11
330
3
100
AcDbSymbolTableRecord
100
AcDbTextStyleTableRecord
  2
Standard
 70
     0
 40
0.0
 41
1.0
 50
0.0
 71
     0
 42
0.2
  3
txt
  4

  0
ENDTAB
  0
TABLE
  2
VIEW
  5
6
330
0
100
AcDbSymbolTable
 70
     8
  0
VIEW
  5
12A
330
6
100
AcDbSymbolTableRecord
100
AcDbViewTableRecord
  2
Top
 70
     0
 40
246.0625
 10
0.0
 20
0.0
 41
400.05
 11
0.0
 21
0.0
 31
1.0
 12
0.0
 22
0.0
 32
0.0
 42
50.0
 43
795.33037
 44
-795.33037
 50
0.0
 71
     0
281
     0
 72
     0
 73
     0
  0
VIEW
  5
12B
330
6
100
AcDbSymbolTableRecord
100
AcDbViewTableRecord
  2
Front
 70
     0
 40
1590.660741
 10
0.0
 20
0.0
 41
400.05
 11
0.0
 21
-1.0
 31
0.0
 12
0.0
 22
0.0
 32
0.0
 42
50.0
 43
820.097798
 44
-820.097798
 50
0.0
 71
     0
281
     0
 72
     0
 73
     0
  0
VIEW
  5
12C
330
6
100
AcDbSymbolTableRecord
100
AcDbViewTableRecord
  2
Right
 70
     0
 40
1590.660741
 10
0.0
 20
0.0
 41
246.0625
 11
1.0
 21
0.0
 31
0.0
 12
0.0
 22
0.0
 32
0.0
 42
50.0
 43
804.790089
 44
-804.790089
 50
0.0
 71
     0
281
     0
 72
     0
 73
     0
  0
VIEW
  5
12D
330
6
100
AcDbSymbolTableRecord
100
AcDbViewTableRecord
  2
Back
 70
     0
 40
1590.660741
 10
0.0
 20
0.0
 41
400.05
 11
0.0
 21
1.0
 31
0.0
 12
0.0
 22
0.0
 32
0.0
 42
50.0
 43
820.097798
 44
-820.097798
 50
0.0
 71
     0
281
     0
 72
     0
 73
     0
  0
VIEW
  5
12E
330
6
100
AcDbSymbolTableRecord
100
AcDbViewTableRecord
  2
Bottom
 70
     0
 40
246.0625
 10
0.0
 20
0.0
 41
400.05
 11
0.0
 21
0.0
 31
-1.0
 12
0.0
 22
0.0
 32
0.0
 42
50.0
 43
795.33037
 44
-795.33037
 50
180.0
 71
     0
281
     0
 72
     0
 73
     0
  0
VIEW
  5
12F
330
6
100
AcDbSymbolTableRecord
100
AcDbViewTableRecord
  2
Left
 70
     0
 40
1590.660741
 10
0.0
 20
0.0
 41
246.0625
 11
-1.0
 21
0.0
 31
0.0
 12
0.0
 22
0.0
 32
0.0
 42
50.0
 43
804.790089
 44
-804.790089
 50
0.0
 71
     0
281
     0
 72
     0
 73
     0
  0
VIEW
  5
130
330
6
100
AcDbSymbolTableRecord
100
AcDbViewTableRecord
  2
Isometric
 70
     0
 40
1562.54338
 10
0.0
 20
0.0
 41
456.87053
 11
0.5773502691896258
 21
-0.5773502691896258
 31
0.5773502691896258
 12
0.0
 22
0.0
 32
0.0
 42
50.0
 43
813.982877
 44
-813.982877
 50
0.0
 71
     0
281
     0
 72
     0
 73
     0
  0
VIEW
  5
131
330
6
100
AcDbSymbolTableRecord
100
AcDbViewTableRecord
  2
Trimetric
 70
     0
 40
1649.107221
 10
0.0
 20
0.0
 41
443.366392
 11
0.7188730927569433
 21
-0.5850486126764433
 31
0.3754192287502549
 12
0.0
 22
0.0
 32
0.0
 42
50.0
 43
815.21363
 44
-815.21363
 50
0.0
 71
     0
281
     0
 72
     0
 73
     0
  0
ENDTAB
  0
TABLE
  2
UCS
  5
7
330
0
100
AcDbSymbolTable
 70
     0
  0
ENDTAB
  0
TABLE
  2
APPID
  5
9
330
0
100
AcDbSymbolTable
 70
     1
  0
APPID
  5
12
330
9
100
AcDbSymbolTableRecord
100
AcDbRegAppTableRecord
  2
ACAD
 70
     0
  0
ENDTAB
  0
TABLE
  2
DIMSTYLE
  5
A
330
0
100
AcDbSymbolTable
 70
     1
100
AcDbDimStyleTable
  0
DIMSTYLE
105
27
330
A
100
AcDbSymbolTableRecord
100
AcDbDimStyleTableRecord
  2
Standard
 70
     0
178
     0
340
11
  0
ENDTAB
  0
TABLE
  2
BLOCK_RECORD
  5
1
330
0
100
AcDbSymbolTable
 70
     1
  0
BLOCK_RECORD
  5
1F
330
1
100
AcDbSymbolTableRecord
100
AcDbBlockTableRecord
  2
*Model_Space
340
22
 70
     0
280
     1
281
     0
  0
BLOCK_RECORD
  5
1B
330
1
100
AcDbSymbolTableRecord
100
AcDbBlockTableRecord
  2
*Paper_Space
340
1E
 70
     0
280
     1
281
     0
  0
BLOCK_RECORD
  5
23
330
1
100
AcDbSymbolTableRecord
100
AcDbBlockTableRecord
  2
*Paper_Space0
340
26
 70
     0
280
     1
281
     0
  0
ENDTAB
  0
ENDSEC
  0
SECTION
  2
BLOCKS
  0
BLOCK
  5
20
330
1F
100
AcDbEntity
  8
0
100
AcDbBlockBegin
  2
*Model_Space
 70
     0
 10
0.0
 20
0.0
 30
0.0
  3
*Model_Space
  1
*Model_Space
  0
ENDBLK
  5
21
330
1F
100
AcDbEntity
  8
0
100
AcDbBlockEnd
  0
BLOCK
  5
1C
330
1B
100
AcDbEntity
 67
     1
  8
0
100
AcDbBlockBegin
  2
*Paper_Space
 70
     0
 10
0.0
 20
0.0
 30
0.0
  3
*Paper_Space
  1
*Paper_Space
  0
ENDBLK
  5
1D
330
1B
100
AcDbEntity
 67
     1
  8
0
100
AcDbBlockEnd
  0
BLOCK
  5
24
330
23
100
AcDbEntity
  8
0
100
AcDbBlockBegin
  2
*Paper_Space0
 70
     0
 10
0.0
 20
0.0
 30
0.0
  3
*Paper_Space0
  1
*Paper_Space0
  0
ENDBLK
  5
25
330
23
100
AcDbEntity
  8
0
100
AcDbBlockEnd
  0
ENDSEC
  0
SECTION
  2
ENTITIES
  0
3DFACE
  5
6F
330
1F
100
AcDbEntity
  8
2
  6
Continuous
 62
     9
370
    25
100
AcDbFace
 10
202.972263
 20
240.472272
 30
-20.94207
 11
202.972263
 21
-240.472272
 31
-20.94207
 12
181.999996
 22
-221.499994
 32
-20.94207
 13
181.999996
 23
221.499994
 33
-20.94207
  0
3DFACE
  5
71
330
1F
100
AcDbEntity
  8
2
  6
Continuous
 62
     9
370
    25
100
AcDbFace
 10
202.972263
 20
-240.472272
 30
-20.94207
 11
-202.972263
 21
-240.472272
 31
-20.94207
 12
-181.999996
 22
-221.499994
 32
-20.94207
 13
181.999996
 23
-221.499994
 33
-20.94207
  0
3DFACE
  5
72
330
1F
100
AcDbEntity
  8
2
  6
Continuous
 62
     9
370
    25
100
AcDbFace
 10
-202.972263
 20
-240.472272
 30
-20.94207
 11
-202.972263
 21
240.472272
 31
-20.94207
 12
-181.999996
 22
221.499994
 32
-20.94207
 13
-181.999996
 23
-221.499994
 33
-20.94207
  0
3DFACE
  5
73
330
1F
100
AcDbEntity
  8
2
  6
Continuous
 62
     9
370
    25
100
AcDbFace
 10
181.999996
 20
221.499994
 30
-20.94207
 11
-181.999996
 21
221.499994
 31
-20.94207
 12
-202.972263
 22
240.472272
 32
-20.94207
 13
202.972263
 23
240.472272
 33
-20.94207
  0
3DFACE
  5
74
330
1F
100
AcDbEntity
  8
2
  6
Continuous
 62
     9
370
    25
100
AcDbFace
 10
-197.176188
 20
234.676182
 30
-0.04207
 11
-197.176188
 21
-234.676182
 31
-0.04207
 12
-35.425
 22
-130.425006
 32
-0.04207
 13
-35.425
 23
130.425006
 33
-0.04207
  0
3DFACE
  5
75
330
1F
100
AcDbEntity
  8
2
  6
Continuous
 62
     9
370
    25
100
AcDbFace
 10
-197.176188
 20
-234.676182
 30
-0.04207
 11
197.176188
 21
-234.676182
 31
-0.04207
 12
35.425
 22
-130.425006
 32
-0.04207
 13
-35.425
 23
-130.425006
 33
-0.04207
  0
3DFACE
  5
76
330
1F
100
AcDbEntity
  8
2
  6
Continuous
 62
     9
370
    25
100
AcDbFace
 10
197.176188
 20
-234.676182
 30
-0.04207
 11
197.176188
 21
234.676182
 31
-0.04207
 12
35.425
 22
130.425006
 32
-0.04207
 13
35.425
 23
-130.425006
 33
-0.04207
  0
3DFACE
  5
77
330
1F
100
AcDbEntity
  8
2
  6
Continuous
 62
     9
370
    25
100
AcDbFace
 10
-35.425
 20
130.425006
 30
-0.04207
 11
35.425
 21
130.425006
 31
-0.04207
 12
197.176188
 22
234.676182
 32
-0.04207
 13
-197.176188
 23
234.676182
 33
-0.04207
  0
3DFACE
  5
78
330
1F
100
AcDbEntity
  8
2
  6
Continuous
 62
     9
370
    25
100
AcDbFace
 10
197.176188
 20
234.676182
 30
-0.04207
 11
197.176188
 21
-234.676182
 31
-0.04207
 12
202.972263
 22
-240.472272
 32
-20.94207
 13
202.972263
 23
240.472272
 33
-20.94207
  0
3DFACE
  5
79
330
1F
100
AcDbEntity
  8
2
  6
Continuous
 62
     9
370
    25
100
AcDbFace
 10
-202.972263
 20
240.472272
 30
-20.94207
 11
-202.972263
 21
-240.472272
 31
-20.94207
 12
-197.176188
 22
-234.676182
 32
-0.04207
 13
-197.176188
 23
234.676182
 33
-0.04207
  0
3DFACE
  5
7A
330
1F
100
AcDbEntity
  8
2
  6
Continuous
 62
     9
370
    25
100
AcDbFace
 10
-197.176188
 20
234.676182
 30
-0.04207
 11
197.176188
 21
234.676182
 31
-0.04207
 12
202.972263
 22
240.472272
 32
-20.94207
 13
-202.972263
 23
240.472272
 33
-20.94207
  0
3DFACE
  5
7B
330
1F
100
AcDbEntity
  8
2
  6
Continuous
 62
     9
370
    25
100
AcDbFace
 10
197.176188
 20
-234.676182
 30
-0.04207
 11
-197.176188
 21
-234.676182
 31
-0.04207
 12
-202.972263
 22
-240.472272
 32
-20.94207
 13
202.972263
 23
-240.472272
 33
-20.94207
  0
LINE
  5
7C
330
1F
100
AcDbEntity
  8
2
  6
Continuous
 62
    60
370
    25
100
AcDbLine
 10
197.176185
 20
-234.676185
 30
-0.04207
 11
197.176185
 21
234.676185
 31
-0.04207
  0
LINE
  5
7D
330
1F
100
AcDbEntity
  8
2
  6
Continuous
 62
    60
370
    25
100
AcDbLine
 10
-197.176185
 20
-234.676185
 30
-0.04207
 11
-202.972268
 21
-240.472268
 31
-20.94207
  0
LINE
  5
7E
330
1F
100
AcDbEntity
  8
2
  6
Continuous
 62
    60
370
    25
100
AcDbLine
 10
-197.176185
 20
234.676185
 30
-0.04207
 11
-202.972268
 21
240.472268
 31
-20.94207
  0
LINE
  5
7F
330
1F
100
AcDbEntity
  8
2
  6
Continuous
 62
    60
370
    25
100
AcDbLine
 10
-197.176185
 20
234.676185
 30
-0.04207
 11
-197.176185
 21
-234.676185
 31
-0.04207
  0
LINE
  5
80
330
1F
100
AcDbEntity
  8
2
  6
Continuous
 62
    60
370
    25
100
AcDbLine
 10
-197.176185
 20
-234.676185
 30
-0.04207
 11
197.176185
 21
-234.676185
 31
-0.04207
  0
LINE
  5
81
330
1F
100
AcDbEntity
  8
2
  6
Continuous
 62
    60
370
    25
100
AcDbLine
 10
197.176185
 20
234.676185
 30
-0.04207
 11
-197.176185
 21
234.676185
 31
-0.04207
  0
LINE
  5
82
330
1F
100
AcDbEntity
  8
2
  6
Continuous
 62
    60
370
    25
100
AcDbLine
 10
202.972268
 20
-240.472268
 30
-20.94207
 11
197.176185
 21
-234.676185
 31
-0.04207
  0
LINE
  5
83
330
1F
100
AcDbEntity
  8
2
  6
Continuous
 62
    60
370
    25
100
AcDbLine
 10
202.972268
 20
240.472268
 30
-20.94207
 11
197.176185
 21
234.676185
 31
-0.04207
  0
LINE
  5
84
330
1F
100
AcDbEntity
  8
2
  6
Continuous
 62
    60
370
    25
100
AcDbLine
 10
202.972268
 20
-240.472268
 30
-20.94207
 11
202.972268
 21
240.472268
 31
-20.94207
  0
LINE
  5
85
330
1F
100
AcDbEntity
  8
2
  6
Continuous
 62
    60
370
    25
100
AcDbLine
 10
-202.972268
 20
240.472268
 30
-20.94207
 11
-202.972268
 21
-240.472268
 31
-20.94207
  0
LINE
  5
86
330
1F
100
AcDbEntity
  8
2
  6
Continuous
 62
    60
370
    25
100
AcDbLine
 10
202.972268
 20
240.472268
 30
-20.94207
 11
-202.972268
 21
240.472268
 31
-20.94207
  0
LINE
  5
87
330
1F
100
AcDbEntity
  8
2
  6
Continuous
 62
    60
370
    25
100
AcDbLine
 10
-202.972268
 20
-240.472268
 30
-20.94207
 11
202.972268
 21
-240.472268
 31
-20.94207
  0
3DFACE
  5
88
330
1F
100
AcDbEntity
  8
2
  6
Continuous
 62
    27
370
    25
100
AcDbFace
 10
-35.425
 20
130.425006
 30
-0.04207
 11
-35.425
 21
130.425006
 31
29.95793
 12
35.425
 22
130.425006
 32
29.95793
 13
35.425
 23
130.425006
 33
-0.04207
  0
3DFACE
  5
89
330
1F
100
AcDbEntity
  8
2
  6
Continuous
 62
    27
370
    25
100
AcDbFace
 10
35.425
 20
130.425006
 30
-0.04207
 11
35.425
 21
130.425006
 31
29.95793
 12
35.425
 22
-130.425006
 32
29.95793
 13
35.425
 23
-130.425006
 33
-0.04207
  0
3DFACE
  5
8A
330
1F
100
AcDbEntity
  8
2
  6
Continuous
 62
    27
370
    25
100
AcDbFace
 10
35.425
 20
-130.425006
 30
-0.04207
 11
35.425
 21
-130.425006
 31
29.95793
 12
-35.425
 22
-130.425006
 32
29.95793
 13
-35.425
 23
-130.425006
 33
-0.04207
  0
3DFACE
  5
8B
330
1F
100
AcDbEntity
  8
2
  6
Continuous
 62
    27
370
    25
100
AcDbFace
 10
-35.425
 20
130.425006
 30
-0.04207
 11
-35.425
 21
-130.425006
 31
-0.04207
 12
-35.425
 22
-130.425006
 32
29.95793
 13
-35.425
 23
130.425006
 33
29.95793
  0
LINE
  5
8C
330
1F
100
AcDbEntity
  8
2
  6
Continuous
 62
    60
370
    25
100
AcDbLine
 10
-35.425
 20
130.425
 30
-0.04207
 11
-35.425
 21
130.425
 31
29.95793
  0
LINE
  5
8D
330
1F
100
AcDbEntity
  8
2
  6
Continuous
 62
    60
370
    25
100
AcDbLine
 10
35.425
 20
130.425
 30
-0.04207
 11
35.425
 21
130.425
 31
29.95793
  0
LINE
  5
8E
330
1F
100
AcDbEntity
  8
2
  6
Continuous
 62
    60
370
    25
100
AcDbLine
 10
35.425
 20
-130.425
 30
-0.04207
 11
35.425
 21
-130.425
 31
29.95793
  0
LINE
  5
8F
330
1F
100
AcDbEntity
  8
2
  6
Continuous
 62
    60
370
    25
100
AcDbLine
 10
-35.425
 20
-130.425
 30
-0.04207
 11
-35.425
 21
-130.425
 31
29.95793
  0
LINE
  5
90
330
1F
100
AcDbEntity
  8
2
  6
Continuous
 62
    60
370
    25
100
AcDbLine
 10
-35.425
 20
130.425
 30
-0.04207
 11
35.425
 21
130.425
 31
-0.04207
  0
LINE
  5
91
330
1F
100
AcDbEntity
  8
2
  6
Continuous
 62
    60
370
    25
100
AcDbLine
 10
35.425
 20
130.425
 30
-0.04207
 11
35.425
 21
-130.425
 31
-0.04207
  0
LINE
  5
92
330
1F
100
AcDbEntity
  8
2
  6
Continuous
 62
    60
370
    25
100
AcDbLine
 10
-35.425
 20
-130.425
 30
-0.04207
 11
35.425
 21
-130.425
 31
-0.04207
  0
LINE
  5
93
330
1F
100
AcDbEntity
  8
2
  6
Continuous
 62
    60
370
    25
100
AcDbLine
 10
-35.425
 20
130.425
 30
-0.04207
 11
-35.425
 21
-130.425
 31
-0.04207
  0
3DFACE
  5
94
330
1F
100
AcDbEntity
  8
2
  6
Continuous
 62
    27
370
    25
100
AcDbFace
 10
-26.75
 20
218.840003
 30
29.95793
 11
-95.935002
 21
218.840003
 31
29.95793
 12
-95.935002
 22
218.840003
 32
45.95793
 13
-24.198275
 23
218.840003
 33
45.95793
  0
3DFACE
  5
95
330
1F
100
AcDbEntity
  8
2
  6
Continuous
 62
    27
370
    25
100
AcDbFace
 10
95.935002
 20
218.840003
 30
29.95793
 11
95.935002
 21
218.840003
 31
45.95793
 12
95.935002
 22
-218.840003
 32
45.95793
 13
95.935002
 23
-218.840003
 33
29.95793
  0
3DFACE
  5
96
330
1F
100
AcDbEntity
  8
2
  6
Continuous
 62
    27
370
    25
100
AcDbFace
 10
-26.75
 20
-218.840003
 30
29.95793
 11
-24.198275
 21
-218.840003
 31
45.95793
 12
-95.935002
 22
-218.840003
 32
45.95793
 13
-95.935002
 23
-218.840003
 33
29.95793
  0
3DFACE
  5
97
330
1F
100
AcDbEntity
  8
2
  6
Continuous
 62
    27
370
    25
100
AcDbFace
 10
35.425
 20
130.425006
 30
29.95793
 11
-35.425
 21
130.425006
 31
29.95793
 12
-26.75
 22
185.839996
 32
29.95793
 13
26.75
 23
185.839996
 33
29.95793
  0
3DFACE
  5
98
330
1F
100
AcDbEntity
  8
2
  6
Continuous
 62
    27
370
    25
100
AcDbFace
 10
-35.425
 20
130.425006
 30
29.95793
 11
-95.935002
 21
218.840003
 31
29.95793
 12
-26.75
 22
218.840003
 32
29.95793
 13
-26.75
 23
185.839996
 33
29.95793
  0
3DFACE
  5
99
330
1F
100
AcDbEntity
  8
2
  6
Continuous
 62
    27
370
    25
100
AcDbFace
 10
95.935002
 20
218.840003
 30
29.95793
 11
95.935002
 21
-218.840003
 31
29.95793
 12
35.425
 22
-130.425006
 32
29.95793
 13
35.425
 23
130.425006
 33
29.95793
  0
3DFACE
  5
9A
330
1F
100
AcDbEntity
  8
2
  6
Continuous
 62
    27
370
    25
100
AcDbFace
 10
35.425
 20
-130.425006
 30
29.95793
 11
95.935002
 21
-218.840003
 31
29.95793
 12
26.75
 22
-218.840003
 32
29.95793
 13
26.75
 23
-185.839996
 33
29.95793
  0
3DFACE
  5
9B
330
1F
100
AcDbEntity
  8
2
  6
Continuous
 62
    27
370
    25
100
AcDbFace
 10
26.75
 20
-185.839996
 30
29.95793
 11
-26.75
 21
-185.839996
 31
29.95793
 12
-35.425
 22
-130.425006
 32
29.95793
 13
35.425
 23
-130.425006
 33
29.95793
  0
3DFACE
  5
9C
330
1F
100
AcDbEntity
  8
2
  6
Continuous
 62
    27
370
    25
100
AcDbFace
 10
-95.935002
 20
218.840003
 30
29.95793
 11
-35.425
 21
130.425006
 31
29.95793
 12
-35.425
 22
-130.425006
 32
29.95793
 13
-35.425
 23
-130.425006
 33
29.95793
  0
3DFACE
  5
9D
330
1F
100
AcDbEntity
  8
2
  6
Continuous
 62
    27
370
    25
100
AcDbFace
 10
-35.425
 20
-130.425006
 30
29.95793
 11
-26.75
 21
-185.839996
 31
29.95793
 12
-95.935002
 22
218.840003
 32
29.95793
 13
-95.935002
 23
218.840003
 33
29.95793
  0
3DFACE
  5
9E
330
1F
100
AcDbEntity
  8
2
  6
Continuous
 62
    27
370
    25
100
AcDbFace
 10
26.75
 20
185.839996
 30
29.95793
 11
26.75
 21
218.840003
 31
29.95793
 12
95.935002
 22
218.840003
 32
29.95793
 13
35.425
 23
130.425006
 33
29.95793
  0
3DFACE
  5
9F
330
1F
100
AcDbEntity
  8
2
  6
Continuous
 62
    27
370
    25
100
AcDbFace
 10
-26.75
 20
-185.839996
 30
29.95793
 11
-26.75
 21
-218.840003
 31
29.95793
 12
-95.935002
 22
-218.840003
 32
29.95793
 13
-95.935002
 23
218.840003
 33
29.95793
  0
3DFACE
  5
A0
330
1F
100
AcDbEntity
  8
2
  6
Continuous
 62
    27
370
    25
100
AcDbFace
 10
-95.935002
 20
218.840003
 30
29.95793
 11
-95.935002
 21
-218.840003
 31
29.95793
 12
-95.935002
 22
-218.840003
 32
45.95793
 13
-95.935002
 23
218.840003
 33
45.95793
  0
LINE
  5
A1
330
1F
100
AcDbEntity
  8
2
  6
Continuous
 62
    60
370
    25
100
AcDbLine
 10
-95.935
 20
218.84
 30
29.95793
 11
-95.935
 21
218.84
 31
45.95793
  0
LINE
  5
A2
330
1F
100
AcDbEntity
  8
2
  6
Continuous
 62
    60
370
    25
100
AcDbLine
 10
95.935
 20
218.84
 30
29.95793
 11
95.935
 21
218.84
 31
45.95793
  0
LINE
  5
A3
330
1F
100
AcDbEntity
  8
2
  6
Continuous
 62
    60
370
    25
100
AcDbLine
 10
-95.935
 20
-218.84
 30
29.95793
 11
-26.75
 21
-218.84
 31
29.95793
  0
LINE
  5
A4
330
1F
100
AcDbEntity
  8
2
  6
Continuous
 62
    60
370
    25
100
AcDbLine
 10
95.935
 20
-218.84
 30
29.95793
 11
95.935
 21
-218.84
 31
45.95793
  0
LINE
  5
A5
330
1F
100
AcDbEntity
  8
2
  6
Continuous
 62
    60
370
    25
100
AcDbLine
 10
-95.935
 20
218.84
 30
29.95793
 11
-26.75
 21
218.84
 31
29.95793
  0
LINE
  5
A6
330
1F
100
AcDbEntity
  8
2
  6
Continuous
 62
    60
370
    25
100
AcDbLine
 10
95.935
 20
218.84
 30
29.95793
 11
95.935
 21
-218.84
 31
29.95793
  0
LINE
  5
A7
330
1F
100
AcDbEntity
  8
2
  6
Continuous
 62
    60
370
    25
100
AcDbLine
 10
-95.935
 20
218.84
 30
29.95793
 11
-95.935
 21
-218.84
 31
29.95793
  0
LINE
  5
A8
330
1F
100
AcDbEntity
  8
2
  6
Continuous
 62
    60
370
    25
100
AcDbLine
 10
-95.935
 20
-218.84
 30
29.95793
 11
-95.935
 21
-218.84
 31
45.95793
  0
LINE
  5
A9
330
1F
100
AcDbEntity
  8
2
  6
Continuous
 62
    60
370
    25
100
AcDbLine
 10
35.425
 20
130.425
 30
29.95793
 11
35.425
 21
-130.425
 31
29.95793
  0
LINE
  5
AA
330
1F
100
AcDbEntity
  8
2
  6
Continuous
 62
    60
370
    25
100
AcDbLine
 10
-35.425
 20
130.425
 30
29.95793
 11
-35.425
 21
-130.425
 31
29.95793
  0
LINE
  5
AB
330
1F
100
AcDbEntity
  8
2
  6
Continuous
 62
    60
370
    25
100
AcDbLine
 10
-35.425
 20
130.425
 30
29.95793
 11
35.425
 21
130.425
 31
29.95793
  0
LINE
  5
AC
330
1F
100
AcDbEntity
  8
2
  6
Continuous
 62
    60
370
    25
100
AcDbLine
 10
-35.425
 20
-130.425
 30
29.95793
 11
35.425
 21
-130.425
 31
29.95793
  0
3DFACE
  5
AD
330
1F
100
AcDbEntity
  8
2
  6
Continuous
 62
    27
370
    25
100
AcDbFace
 10
-81.454359
 20
204.359353
 30
96.457928
 11
81.454359
 21
204.359353
 31
96.457928
 12
17.5
 22
206.796691
 32
87.957934
 13
-17.5
 23
206.796691
 33
87.957934
  0
3DFACE
  5
AE
330
1F
100
AcDbEntity
  8
2
  6
Continuous
 62
    27
370
    25
100
AcDbFace
 10
81.454359
 20
204.359353
 30
96.457928
 11
95.935002
 21
218.840003
 31
45.95793
 12
24.198275
 22
218.840003
 32
45.95793
 13
17.5
 23
206.796691
 33
87.957934
  0
3DFACE
  5
AF
330
1F
100
AcDbEntity
  8
2
  6
Continuous
 62
    27
370
    25
100
AcDbFace
 10
-17.5
 20
206.796691
 30
87.957934
 11
-24.198275
 21
218.840003
 31
45.95793
 12
-95.935002
 22
218.840003
 32
45.95793
 13
-81.454359
 23
204.359353
 33
96.457928
  0
3DFACE
  5
B0
330
1F
100
AcDbEntity
  8
2
  6
Continuous
 62
    27
370
    25
100
AcDbFace
 10
-81.454359
 20
-204.359353
 30
96.457928
 11
81.454359
 21
-204.359353
 31
96.457928
 12
81.454359
 22
204.359353
 32
96.457928
 13
-81.454359
 23
204.359353
 33
96.457928
  0
3DFACE
  5
B1
330
1F
100
AcDbEntity
  8
2
  6
Continuous
 62
    27
370
    25
100
AcDbFace
 10
81.454359
 20
-204.359353
 30
96.457928
 11
-81.454359
 21
-204.359353
 31
96.457928
 12
-17.5
 22
-206.796691
 32
87.957934
 13
17.5
 23
-206.796691
 33
87.957934
  0
3DFACE
  5
B2
330
1F
100
AcDbEntity
  8
2
  6
Continuous
 62
    27
370
    25
100
AcDbFace
 10
-81.454359
 20
-204.359353
 30
96.457928
 11
-95.935002
 21
-218.840003
 31
45.95793
 12
-24.198275
 22
-218.840003
 32
45.95793
 13
-17.5
 23
-206.796691
 33
87.957934
  0
3DFACE
  5
B3
330
1F
100
AcDbEntity
  8
2
  6
Continuous
 62
    27
370
    25
100
AcDbFace
 10
17.5
 20
-206.796691
 30
87.957934
 11
24.198275
 21
-218.840003
 31
45.95793
 12
95.935002
 22
-218.840003
 32
45.95793
 13
81.454359
 23
-204.359353
 33
96.457928
  0
3DFACE
  5
B4
330
1F
100
AcDbEntity
  8
2
  6
Continuous
 62
    27
370
    25
100
AcDbFace
 10
81.454359
 20
-204.359353
 30
96.457928
 11
95.935002
 21
-218.840003
 31
45.95793
 12
95.935002
 22
218.840003
 32
45.95793
 13
81.454359
 23
204.359353
 33
96.457928
  0
3DFACE
  5
B5
330
1F
100
AcDbEntity
  8
2
  6
Continuous
 62
    27
370
    25
100
AcDbFace
 10
-81.454359
 20
204.359353
 30
96.457928
 11
-95.935002
 21
218.840003
 31
45.95793
 12
-95.935002
 22
-218.840003
 32
45.95793
 13
-81.454359
 23
-204.359353
 33
96.457928
  0
LINE
  5
B6
330
1F
100
AcDbEntity
  8
2
  6
Continuous
 62
    60
370
    25
100
AcDbLine
 10
-95.935
 20
-218.84
 30
45.95793
 11
-81.454358
 21
-204.359358
 31
96.45793
  0
LINE
  5
B7
330
1F
100
AcDbEntity
  8
2
  6
Continuous
 62
    60
370
    25
100
AcDbLine
 10
81.454358
 20
204.359358
 30
96.45793
 11
81.454358
 21
-204.359358
 31
96.45793
  0
LINE
  5
B8
330
1F
100
AcDbEntity
  8
2
  6
Continuous
 62
    60
370
    25
100
AcDbLine
 10
-81.454358
 20
-204.359358
 30
96.45793
 11
-81.454358
 21
204.359358
 31
96.45793
  0
LINE
  5
B9
330
1F
100
AcDbEntity
  8
2
  6
Continuous
 62
    60
370
    25
100
AcDbLine
 10
81.454358
 20
-204.359358
 30
96.45793
 11
-81.454358
 21
-204.359358
 31
96.45793
  0
LINE
  5
BA
330
1F
100
AcDbEntity
  8
2
  6
Continuous
 62
    60
370
    25
100
AcDbLine
 10
95.935
 20
-218.84
 30
45.95793
 11
81.454358
 21
-204.359358
 31
96.45793
  0
LINE
  5
BB
330
1F
100
AcDbEntity
  8
2
  6
Continuous
 62
    60
370
    25
100
AcDbLine
 10
-81.454358
 20
204.359358
 30
96.45793
 11
81.454358
 21
204.359358
 31
96.45793
  0
LINE
  5
BC
330
1F
100
AcDbEntity
  8
2
  6
Continuous
 62
    60
370
    25
100
AcDbLine
 10
95.935
 20
218.84
 30
45.95793
 11
81.454358
 21
204.359358
 31
96.45793
  0
LINE
  5
BD
330
1F
100
AcDbEntity
  8
2
  6
Continuous
 62
    60
370
    25
100
AcDbLine
 10
-95.935
 20
218.84
 30
45.95793
 11
-81.454358
 21
204.359358
 31
96.45793
  0
LINE
  5
BE
330
1F
100
AcDbEntity
  8
2
  6
Continuous
 62
    60
370
    25
100
AcDbLine
 10
-95.935
 20
-218.84
 30
45.95793
 11
-95.935
 21
218.84
 31
45.95793
  0
LINE
  5
BF
330
1F
100
AcDbEntity
  8
2
  6
Continuous
 62
    60
370
    25
100
AcDbLine
 10
-24.198276
 20
-218.84
 30
45.95793
 11
-95.935
 21
-218.84
 31
45.95793
  0
LINE
  5
C0
330
1F
100
AcDbEntity
  8
2
  6
Continuous
 62
    60
370
    25
100
AcDbLine
 10
95.935
 20
218.84
 30
45.95793
 11
95.935
 21
-218.84
 31
45.95793
  0
LINE
  5
C1
330
1F
100
AcDbEntity
  8
2
  6
Continuous
 62
    60
370
    25
100
AcDbLine
 10
-95.935
 20
218.84
 30
45.95793
 11
-24.198276
 21
218.84
 31
45.95793
  0
3DFACE
  5
C2
330
1F
100
AcDbEntity
  8
2
  6
Continuous
 62
    27
370
    25
100
AcDbFace
 10
24.198275
 20
218.840003
 30
45.95793
 11
95.935002
 21
218.840003
 31
45.95793
 12
95.935002
 22
218.840003
 32
29.95793
 13
26.75
 23
218.840003
 33
29.95793
  0
LINE
  5
C3
330
1F
100
AcDbEntity
  8
2
  6
Continuous
 62
    60
370
    25
100
AcDbLine
 10
26.75
 20
218.84
 30
29.95793
 11
95.935
 21
218.84
 31
29.95793
  0
LINE
  5
C4
330
1F
100
AcDbEntity
  8
2
  6
Continuous
 62
    60
370
    25
100
AcDbLine
 10
24.198276
 20
218.84
 30
45.95793
 11
95.935
 21
218.84
 31
45.95793
  0
3DFACE
  5
C5
330
1F
100
AcDbEntity
  8
2
  6
Continuous
 62
     9
370
    25
100
AcDbFace
 10
-181.999996
 20
221.499994
 30
-20.94207
 11
-181.999996
 21
221.499994
 31
-15.04207
 12
-181.999996
 22
-221.499994
 32
-15.04207
 13
-181.999996
 23
-221.499994
 33
-20.94207
  0
3DFACE
  5
C6
330
1F
100
AcDbEntity
  8
2
  6
Continuous
 62
     9
370
    25
100
AcDbFace
 10
181.999996
 20
221.499994
 30
-20.94207
 11
181.999996
 21
221.499994
 31
-15.04207
 12
-181.999996
 22
221.499994
 32
-15.04207
 13
-181.999996
 23
221.499994
 33
-20.94207
  0
3DFACE
  5
C7
330
1F
100
AcDbEntity
  8
2
  6
Continuous
 62
     9
370
    25
100
AcDbFace
 10
181.999996
 20
221.499994
 30
-15.04207
 11
175.099999
 21
216.499999
 31
-15.04207
 12
1.5
 22
216.499999
 32
-15.04207
 13
1.5
 23
216.499999
 33
-15.04207
  0
3DFACE
  5
C8
330
1F
100
AcDbEntity
  8
2
  6
Continuous
 62
     9
370
    25
100
AcDbFace
 10
1.5
 20
216.499999
 30
-15.04207
 11
-1.5
 21
216.499999
 31
-15.04207
 12
181.999996
 22
221.499994
 32
-15.04207
 13
181.999996
 23
221.499994
 33
-15.04207
  0
3DFACE
  5
C9
330
1F
100
AcDbEntity
  8
2
  6
Continuous
 62
     9
370
    25
100
AcDbFace
 10
1.5
 20
216.499999
 30
-15.04207
 11
-1.5
 21
-216.499999
 31
-15.04207
 12
-1.5
 22
216.499999
 32
-15.04207
 13
-1.5
 23
216.499999
 33
-15.04207
  0
3DFACE
  5
CA
330
1F
100
AcDbEntity
  8
2
  6
Continuous
 62
     9
370
    25
100
AcDbFace
 10
181.999996
 20
221.499994
 30
-15.04207
 11
181.999996
 21
-221.499994
 31
-15.04207
 12
175.099999
 22
-216.499999
 32
-15.04207
 13
175.099999
 23
216.499999
 33
-15.04207
  0
3DFACE
  5
CB
330
1F
100
AcDbEntity
  8
2
  6
Continuous
 62
     9
370
    25
100
AcDbFace
 10
-181.999996
 20
-221.499994
 30
-15.04207
 11
-175.099999
 21
-216.499999
 31
-15.04207
 12
-1.5
 22
-216.499999
 32
-15.04207
 13
-1.5
 23
-216.499999
 33
-15.04207
  0
3DFACE
  5
CC
330
1F
100
AcDbEntity
  8
2
  6
Continuous
 62
     9
370
    25
100
AcDbFace
 10
181.999996
 20
-221.499994
 30
-15.04207
 11
-181.999996
 21
-221.499994
 31
-15.04207
 12
1.5
 22
-216.499999
 32
-15.04207
 13
175.099999
 23
-216.499999
 33
-15.04207
  0
3DFACE
  5
CD
330
1F
100
AcDbEntity
  8
2
  6
Continuous
 62
     9
370
    25
100
AcDbFace
 10
-1.5
 20
-216.499999
 30
-15.04207
 11
1.5
 21
-216.499999
 31
-15.04207
 12
-181.999996
 22
-221.499994
 32
-15.04207
 13
-181.999996
 23
-221.499994
 33
-15.04207
  0
3DFACE
  5
CE
330
1F
100
AcDbEntity
  8
2
  6
Continuous
 62
     9
370
    25
100
AcDbFace
 10
-1.5
 20
-216.499999
 30
-15.04207
 11
1.5
 21
216.499999
 31
-15.04207
 12
1.5
 22
-216.499999
 32
-15.04207
 13
1.5
 23
-216.499999
 33
-15.04207
  0
3DFACE
  5
CF
330
1F
100
AcDbEntity
  8
2
  6
Continuous
 62
     9
370
    25
100
AcDbFace
 10
-181.999996
 20
-221.499994
 30
-15.04207
 11
-181.999996
 21
221.499994
 31
-15.04207
 12
-175.099999
 22
216.499999
 32
-15.04207
 13
-175.099999
 23
-216.499999
 33
-15.04207
  0
3DFACE
  5
D0
330
1F
100
AcDbEntity
  8
2
  6
Continuous
 62
     9
370
    25
100
AcDbFace
 10
-1.5
 20
216.499999
 30
-15.04207
 11
-175.099999
 21
216.499999
 31
-15.04207
 12
-181.999996
 22
221.499994
 32
-15.04207
 13
181.999996
 23
221.499994
 33
-15.04207
  0
3DFACE
  5
D1
330
1F
100
AcDbEntity
  8
2
  6
Continuous
 62
     9
370
    25
100
AcDbFace
 10
181.999996
 20
-221.499994
 30
-20.94207
 11
181.999996
 21
-221.499994
 31
-15.04207
 12
181.999996
 22
221.499994
 32
-15.04207
 13
181.999996
 23
221.499994
 33
-20.94207
  0
3DFACE
  5
D2
330
1F
100
AcDbEntity
  8
2
  6
Continuous
 62
     9
370
    25
100
AcDbFace
 10
-181.999996
 20
-221.499994
 30
-20.94207
 11
-181.999996
 21
-221.499994
 31
-15.04207
 12
181.999996
 22
-221.499994
 32
-15.04207
 13
181.999996
 23
-221.499994
 33
-20.94207
  0
LINE
  5
D3
330
1F
100
AcDbEntity
  8
2
  6
Continuous
 62
    60
370
    25
100
AcDbLine
 10
182.0
 20
221.5
 30
-15.04207
 11
-182.0
 21
221.5
 31
-15.04207
  0
LINE
  5
D4
330
1F
100
AcDbEntity
  8
2
  6
Continuous
 62
    60
370
    25
100
AcDbLine
 10
182.0
 20
221.5
 30
-20.94207
 11
182.0
 21
221.5
 31
-15.04207
  0
LINE
  5
D5
330
1F
100
AcDbEntity
  8
2
  6
Continuous
 62
    60
370
    25
100
AcDbLine
 10
-182.0
 20
221.5
 30
-15.04207
 11
-182.0
 21
-221.5
 31
-15.04207
  0
LINE
  5
D6
330
1F
100
AcDbEntity
  8
2
  6
Continuous
 62
    60
370
    25
100
AcDbLine
 10
-182.0
 20
-221.5
 30
-15.04207
 11
182.0
 21
-221.5
 31
-15.04207
  0
LINE
  5
D7
330
1F
100
AcDbEntity
  8
2
  6
Continuous
 62
    60
370
    25
100
AcDbLine
 10
-182.0
 20
221.5
 30
-20.94207
 11
-182.0
 21
221.5
 31
-15.04207
  0
LINE
  5
D8
330
1F
100
AcDbEntity
  8
2
  6
Continuous
 62
    60
370
    25
100
AcDbLine
 10
182.0
 20
-221.5
 30
-15.04207
 11
182.0
 21
221.5
 31
-15.04207
  0
LINE
  5
D9
330
1F
100
AcDbEntity
  8
2
  6
Continuous
 62
    60
370
    25
100
AcDbLine
 10
-182.0
 20
-221.5
 30
-20.94207
 11
-182.0
 21
-221.5
 31
-15.04207
  0
LINE
  5
DA
330
1F
100
AcDbEntity
  8
2
  6
Continuous
 62
    60
370
    25
100
AcDbLine
 10
182.0
 20
-221.5
 30
-20.94207
 11
182.0
 21
-221.5
 31
-15.04207
  0
LINE
  5
DB
330
1F
100
AcDbEntity
  8
2
  6
Continuous
 62
    60
370
    25
100
AcDbLine
 10
-182.0
 20
221.5
 30
-20.94207
 11
182.0
 21
221.5
 31
-20.94207
  0
LINE
  5
DC
330
1F
100
AcDbEntity
  8
2
  6
Continuous
 62
    60
370
    25
100
AcDbLine
 10
-182.0
 20
-221.5
 30
-20.94207
 11
-182.0
 21
221.5
 31
-20.94207
  0
LINE
  5
DD
330
1F
100
AcDbEntity
  8
2
  6
Continuous
 62
    60
370
    25
100
AcDbLine
 10
182.0
 20
-221.5
 30
-20.94207
 11
-182.0
 21
-221.5
 31
-20.94207
  0
LINE
  5
DE
330
1F
100
AcDbEntity
  8
2
  6
Continuous
 62
    60
370
    25
100
AcDbLine
 10
182.0
 20
221.5
 30
-20.94207
 11
182.0
 21
-221.5
 31
-20.94207
  0
3DFACE
  5
DF
330
1F
100
AcDbEntity
  8
2
  6
Continuous
 62
   252
370
    25
100
AcDbFace
 10
-1.5
 20
216.499999
 30
-15.54207
 11
-1.5
 21
-216.499999
 31
-15.54207
 12
-175.099999
 22
-216.499999
 32
-15.54207
 13
-175.099999
 23
216.499999
 33
-15.54207
  0
3DFACE
  5
E0
330
1F
100
AcDbEntity
  8
2
  6
Continuous
 62
     9
370
    25
100
AcDbFace
 10
-1.5
 20
216.499999
 30
-15.04207
 11
-1.5
 21
216.499999
 31
-15.54207
 12
-175.099999
 22
216.499999
 32
-15.54207
 13
-175.099999
 23
216.499999
 33
-15.04207
  0
3DFACE
  5
E1
330
1F
100
AcDbEntity
  8
2
  6
Continuous
 62
     9
370
    25
100
AcDbFace
 10
-1.5
 20
-216.499999
 30
-15.04207
 11
-1.5
 21
-216.499999
 31
-15.54207
 12
-1.5
 22
216.499999
 32
-15.54207
 13
-1.5
 23
216.499999
 33
-15.04207
  0
3DFACE
  5
E2
330
1F
100
AcDbEntity
  8
2
  6
Continuous
 62
     9
370
    25
100
AcDbFace
 10
-175.099999
 20
-216.499999
 30
-15.04207
 11
-175.099999
 21
-216.499999
 31
-15.54207
 12
-1.5
 22
-216.499999
 32
-15.54207
 13
-1.5
 23
-216.499999
 33
-15.04207
  0
3DFACE
  5
E3
330
1F
100
AcDbEntity
  8
2
  6
Continuous
 62
     9
370
    25
100
AcDbFace
 10
-175.099999
 20
216.499999
 30
-15.04207
 11
-175.099999
 21
216.499999
 31
-15.54207
 12
-175.099999
 22
-216.499999
 32
-15.54207
 13
-175.099999
 23
-216.499999
 33
-15.04207
  0
LINE
  5
E4
330
1F
100
AcDbEntity
  8
2
  6
Continuous
 62
    60
370
    25
100
AcDbLine
 10
-1.5
 20
216.5
 30
-15.54207
 11
-1.5
 21
-216.5
 31
-15.54207
  0
LINE
  5
E5
330
1F
100
AcDbEntity
  8
2
  6
Continuous
 62
    60
370
    25
100
AcDbLine
 10
-175.1
 20
-216.5
 30
-15.54207
 11
-175.1
 21
-216.5
 31
-15.04207
  0
LINE
  5
E6
330
1F
100
AcDbEntity
  8
2
  6
Continuous
 62
    60
370
    25
100
AcDbLine
 10
-1.5
 20
-216.5
 30
-15.54207
 11
-1.5
 21
-216.5
 31
-15.04207
  0
LINE
  5
E7
330
1F
100
AcDbEntity
  8
2
  6
Continuous
 62
    60
370
    25
100
AcDbLine
 10
-1.5
 20
216.5
 30
-15.54207
 11
-1.5
 21
216.5
 31
-15.04207
  0
LINE
  5
E8
330
1F
100
AcDbEntity
  8
2
  6
Continuous
 62
    60
370
    25
100
AcDbLine
 10
-175.1
 20
216.5
 30
-15.54207
 11
-1.5
 21
216.5
 31
-15.54207
  0
LINE
  5
E9
330
1F
100
AcDbEntity
  8
2
  6
Continuous
 62
    60
370
    25
100
AcDbLine
 10
-175.1
 20
216.5
 30
-15.54207
 11
-175.1
 21
216.5
 31
-15.04207
  0
LINE
  5
EA
330
1F
100
AcDbEntity
  8
2
  6
Continuous
 62
    60
370
    25
100
AcDbLine
 10
-175.1
 20
-216.5
 30
-15.54207
 11
-175.1
 21
216.5
 31
-15.54207
  0
LINE
  5
EB
330
1F
100
AcDbEntity
  8
2
  6
Continuous
 62
    60
370
    25
100
AcDbLine
 10
-1.5
 20
-216.5
 30
-15.54207
 11
-175.1
 21
-216.5
 31
-15.54207
  0
LINE
  5
EC
330
1F
100
AcDbEntity
  8
2
  6
Continuous
 62
    60
370
    25
100
AcDbLine
 10
-1.5
 20
216.5
 30
-15.04207
 11
-1.5
 21
-216.5
 31
-15.04207
  0
LINE
  5
ED
330
1F
100
AcDbEntity
  8
2
  6
Continuous
 62
    60
370
    25
100
AcDbLine
 10
-175.1
 20
-216.5
 30
-15.04207
 11
-175.1
 21
216.5
 31
-15.04207
  0
LINE
  5
EE
330
1F
100
AcDbEntity
  8
2
  6
Continuous
 62
    60
370
    25
100
AcDbLine
 10
-175.1
 20
216.5
 30
-15.04207
 11
-1.5
 21
216.5
 31
-15.04207
  0
LINE
  5
EF
330
1F
100
AcDbEntity
  8
2
  6
Continuous
 62
    60
370
    25
100
AcDbLine
 10
-1.5
 20
-216.5
 30
-15.04207
 11
-175.1
 21
-216.5
 31
-15.04207
  0
3DFACE
  5
F0
330
1F
100
AcDbEntity
  8
2
  6
Continuous
 62
    27
370
    25
100
AcDbFace
 10
17.5
 20
185.839996
 30
87.957934
 11
-17.5
 21
185.839996
 31
87.957934
 12
-17.5
 22
206.796691
 32
87.957934
 13
17.5
 23
206.796691
 33
87.957934
  0
3DFACE
  5
F1
330
1F
100
AcDbEntity
  8
2
  6
Continuous
 62
    27
370
    25
100
AcDbFace
 10
-26.75
 20
185.839996
 30
29.95793
 11
-26.75
 21
218.840003
 31
29.95793
 12
-24.198275
 22
218.840003
 32
45.95793
 13
-24.198275
 23
218.840003
 33
45.95793
  0
3DFACE
  5
F2
330
1F
100
AcDbEntity
  8
2
  6
Continuous
 62
    27
370
    25
100
AcDbFace
 10
-24.198275
 20
218.840003
 30
45.95793
 11
-17.5
 21
206.796691
 31
87.957934
 12
-17.5
 22
185.839996
 32
87.957934
 13
-26.75
 23
185.839996
 33
29.95793
  0
3DFACE
  5
F3
330
1F
100
AcDbEntity
  8
2
  6
Continuous
 62
    27
370
    25
100
AcDbFace
 10
26.75
 20
185.839996
 30
29.95793
 11
-26.75
 21
185.839996
 31
29.95793
 12
-17.5
 22
185.839996
 32
87.957934
 13
17.5
 23
185.839996
 33
87.957934
  0
3DFACE
  5
F4
330
1F
100
AcDbEntity
  8
2
  6
Continuous
 62
    27
370
    25
100
AcDbFace
 10
26.75
 20
185.839996
 30
29.95793
 11
17.5
 21
185.839996
 31
87.957934
 12
17.5
 22
206.796691
 32
87.957934
 13
24.198275
 23
218.840003
 33
45.95793
  0
3DFACE
  5
F5
330
1F
100
AcDbEntity
  8
2
  6
Continuous
 62
    27
370
    25
100
AcDbFace
 10
24.198275
 20
218.840003
 30
45.95793
 11
26.75
 21
218.840003
 31
29.95793
 12
26.75
 22
185.839996
 32
29.95793
 13
26.75
 23
185.839996
 33
29.95793
  0
LINE
  5
F6
330
1F
100
AcDbEntity
  8
2
  6
Continuous
 62
    60
370
    25
100
AcDbLine
 10
-17.5
 20
185.84
 30
87.95793
 11
-26.75
 21
185.84
 31
29.95793
  0
LINE
  5
F7
330
1F
100
AcDbEntity
  8
2
  6
Continuous
 62
    60
370
    25
100
AcDbLine
 10
-17.5
 20
206.796694
 30
87.95793
 11
-17.5
 21
185.84
 31
87.95793
  0
LINE
  5
F8
330
1F
100
AcDbEntity
  8
2
  6
Continuous
 62
    60
370
    25
100
AcDbLine
 10
17.5
 20
185.84
 30
87.95793
 11
-17.5
 21
185.84
 31
87.95793
  0
LINE
  5
F9
330
1F
100
AcDbEntity
  8
2
  6
Continuous
 62
    60
370
    25
100
AcDbLine
 10
26.75
 20
185.84
 30
29.95793
 11
17.5
 21
185.84
 31
87.95793
  0
LINE
  5
FA
330
1F
100
AcDbEntity
  8
2
  6
Continuous
 62
    60
370
    25
100
AcDbLine
 10
17.5
 20
206.796694
 30
87.95793
 11
17.5
 21
185.84
 31
87.95793
  0
LINE
  5
FB
330
1F
100
AcDbEntity
  8
2
  6
Continuous
 62
    60
370
    25
100
AcDbLine
 10
17.5
 20
206.796694
 30
87.95793
 11
-17.5
 21
206.796694
 31
87.95793
  0
LINE
  5
FC
330
1F
100
AcDbEntity
  8
2
  6
Continuous
 62
    60
370
    25
100
AcDbLine
 10
-26.75
 20
218.84
 30
29.95793
 11
-24.198276
 21
218.84
 31
45.95793
  0
LINE
  5
FD
330
1F
100
AcDbEntity
  8
2
  6
Continuous
 62
    60
370
    25
100
AcDbLine
 10
24.198276
 20
218.84
 30
45.95793
 11
26.75
 21
218.84
 31
29.95793
  0
LINE
  5
FE
330
1F
100
AcDbEntity
  8
2
  6
Continuous
 62
    60
370
    25
100
AcDbLine
 10
-17.5
 20
206.796694
 30
87.95793
 11
-24.198276
 21
218.84
 31
45.95793
  0
LINE
  5
FF
330
1F
100
AcDbEntity
  8
2
  6
Continuous
 62
    60
370
    25
100
AcDbLine
 10
24.198276
 20
218.84
 30
45.95793
 11
17.5
 21
206.796694
 31
87.95793
  0
3DFACE
  5
100
330
1F
100
AcDbEntity
  8
2
  6
Continuous
 62
    27
370
    25
100
AcDbFace
 10
26.75
 20
-185.839996
 30
29.95793
 11
26.75
 21
-218.840003
 31
29.95793
 12
24.198275
 22
-218.840003
 32
45.95793
 13
24.198275
 23
-218.840003
 33
45.95793
  0
3DFACE
  5
101
330
1F
100
AcDbEntity
  8
2
  6
Continuous
 62
    27
370
    25
100
AcDbFace
 10
24.198275
 20
-218.840003
 30
45.95793
 11
17.5
 21
-206.796691
 31
87.957934
 12
17.5
 22
-185.839996
 32
87.957934
 13
26.75
 23
-185.839996
 33
29.95793
  0
3DFACE
  5
102
330
1F
100
AcDbEntity
  8
2
  6
Continuous
 62
    27
370
    25
100
AcDbFace
 10
-26.75
 20
-185.839996
 30
29.95793
 11
-17.5
 21
-185.839996
 31
87.957934
 12
-17.5
 22
-206.796691
 32
87.957934
 13
-24.198275
 23
-218.840003
 33
45.95793
  0
3DFACE
  5
103
330
1F
100
AcDbEntity
  8
2
  6
Continuous
 62
    27
370
    25
100
AcDbFace
 10
-24.198275
 20
-218.840003
 30
45.95793
 11
-26.75
 21
-218.840003
 31
29.95793
 12
-26.75
 22
-185.839996
 32
29.95793
 13
-26.75
 23
-185.839996
 33
29.95793
  0
3DFACE
  5
104
330
1F
100
AcDbEntity
  8
2
  6
Continuous
 62
    27
370
    25
100
AcDbFace
 10
-17.5
 20
-206.796691
 30
87.957934
 11
-17.5
 21
-185.839996
 31
87.957934
 12
17.5
 22
-185.839996
 32
87.957934
 13
17.5
 23
-206.796691
 33
87.957934
  0
3DFACE
  5
105
330
1F
100
AcDbEntity
  8
2
  6
Continuous
 62
    27
370
    25
100
AcDbFace
 10
17.5
 20
-185.839996
 30
87.957934
 11
-17.5
 21
-185.839996
 31
87.957934
 12
-26.75
 22
-185.839996
 32
29.95793
 13
26.75
 23
-185.839996
 33
29.95793
  0
LINE
  5
106
330
1F
100
AcDbEntity
  8
2
  6
Continuous
 62
    60
370
    25
100
AcDbLine
 10
17.5
 20
-185.84
 30
87.95793
 11
-17.5
 21
-185.84
 31
87.95793
  0
LINE
  5
107
330
1F
100
AcDbEntity
  8
2
  6
Continuous
 62
    60
370
    25
100
AcDbLine
 10
26.75
 20
-185.84
 30
29.95793
 11
17.5
 21
-185.84
 31
87.95793
  0
LINE
  5
108
330
1F
100
AcDbEntity
  8
2
  6
Continuous
 62
    60
370
    25
100
AcDbLine
 10
17.5
 20
-206.796694
 30
87.95793
 11
17.5
 21
-185.84
 31
87.95793
  0
LINE
  5
109
330
1F
100
AcDbEntity
  8
2
  6
Continuous
 62
    60
370
    25
100
AcDbLine
 10
-17.5
 20
-185.84
 30
87.95793
 11
-26.75
 21
-185.84
 31
29.95793
  0
LINE
  5
10A
330
1F
100
AcDbEntity
  8
2
  6
Continuous
 62
    60
370
    25
100
AcDbLine
 10
-17.5
 20
-206.796694
 30
87.95793
 11
-17.5
 21
-185.84
 31
87.95793
  0
3DFACE
  5
10B
330
1F
100
AcDbEntity
  8
2
  6
Continuous
 62
    27
370
    25
100
AcDbFace
 10
24.198275
 20
-218.840003
 30
45.95793
 11
26.75
 21
-218.840003
 31
29.95793
 12
95.935002
 22
-218.840003
 32
29.95793
 13
95.935002
 23
-218.840003
 33
45.95793
  0
LINE
  5
10C
330
1F
100
AcDbEntity
  8
2
  6
Continuous
 62
    60
370
    25
100
AcDbLine
 10
24.198276
 20
-218.84
 30
45.95793
 11
26.75
 21
-218.84
 31
29.95793
  0
LINE
  5
10D
330
1F
100
AcDbEntity
  8
2
  6
Continuous
 62
    60
370
    25
100
AcDbLine
 10
-26.75
 20
-218.84
 30
29.95793
 11
-24.198276
 21
-218.84
 31
45.95793
  0
LINE
  5
10E
330
1F
100
AcDbEntity
  8
2
  6
Continuous
 62
    60
370
    25
100
AcDbLine
 10
24.198276
 20
-218.84
 30
45.95793
 11
17.5
 21
-206.796694
 31
87.95793
  0
LINE
  5
10F
330
1F
100
AcDbEntity
  8
2
  6
Continuous
 62
    60
370
    25
100
AcDbLine
 10
26.75
 20
-218.84
 30
29.95793
 11
95.935
 21
-218.84
 31
29.95793
  0
LINE
  5
110
330
1F
100
AcDbEntity
  8
2
  6
Continuous
 62
    60
370
    25
100
AcDbLine
 10
-17.5
 20
-206.796694
 30
87.95793
 11
-24.198276
 21
-218.84
 31
45.95793
  0
LINE
  5
111
330
1F
100
AcDbEntity
  8
2
  6
Continuous
 62
    60
370
    25
100
AcDbLine
 10
95.935
 20
-218.84
 30
45.95793
 11
24.198276
 21
-218.84
 31
45.95793
  0
LINE
  5
112
330
1F
100
AcDbEntity
  8
2
  6
Continuous
 62
    60
370
    25
100
AcDbLine
 10
17.5
 20
-206.796694
 30
87.95793
 11
-17.5
 21
-206.796694
 31
87.95793
  0
LINE
  5
113
330
1F
100
AcDbEntity
  8
2
  6
Continuous
 62
    60
370
    25
100
AcDbLine
 10
26.75
 20
218.84
 30
29.95793
 11
26.75
 21
185.84
 31
29.95793
  0
LINE
  5
114
330
1F
100
AcDbEntity
  8
2
  6
Continuous
 62
    60
370
    25
100
AcDbLine
 10
-26.75
 20
185.84
 30
29.95793
 11
-26.75
 21
218.84
 31
29.95793
  0
LINE
  5
115
330
1F
100
AcDbEntity
  8
2
  6
Continuous
 62
    60
370
    25
100
AcDbLine
 10
-26.75
 20
-185.84
 30
29.95793
 11
-26.75
 21
-218.84
 31
29.95793
  0
LINE
  5
116
330
1F
100
AcDbEntity
  8
2
  6
Continuous
 62
    60
370
    25
100
AcDbLine
 10
26.75
 20
-218.84
 30
29.95793
 11
26.75
 21
-185.84
 31
29.95793
  0
LINE
  5
117
330
1F
100
AcDbEntity
  8
2
  6
Continuous
 62
    60
370
    25
100
AcDbLine
 10
-26.75
 20
185.84
 30
29.95793
 11
26.75
 21
185.84
 31
29.95793
  0
LINE
  5
118
330
1F
100
AcDbEntity
  8
2
  6
Continuous
 62
    60
370
    25
100
AcDbLine
 10
-26.75
 20
-185.84
 30
29.95793
 11
26.75
 21
-185.84
 31
29.95793
  0
3DFACE
  5
119
330
1F
100
AcDbEntity
  8
2
  6
Continuous
 62
   252
370
    25
100
AcDbFace
 10
175.099999
 20
216.499999
 30
-15.54207
 11
175.099999
 21
-216.499999
 31
-15.54207
 12
1.5
 22
-216.499999
 32
-15.54207
 13
1.5
 23
216.499999
 33
-15.54207
  0
3DFACE
  5
11A
330
1F
100
AcDbEntity
  8
2
  6
Continuous
 62
     9
370
    25
100
AcDbFace
 10
175.099999
 20
216.499999
 30
-15.04207
 11
175.099999
 21
216.499999
 31
-15.54207
 12
1.5
 22
216.499999
 32
-15.54207
 13
1.5
 23
216.499999
 33
-15.04207
  0
3DFACE
  5
11B
330
1F
100
AcDbEntity
  8
2
  6
Continuous
 62
     9
370
    25
100
AcDbFace
 10
1.5
 20
216.499999
 30
-15.04207
 11
1.5
 21
216.499999
 31
-15.54207
 12
1.5
 22
-216.499999
 32
-15.54207
 13
1.5
 23
-216.499999
 33
-15.04207
  0
3DFACE
  5
11C
330
1F
100
AcDbEntity
  8
2
  6
Continuous
 62
     9
370
    25
100
AcDbFace
 10
1.5
 20
-216.499999
 30
-15.04207
 11
1.5
 21
-216.499999
 31
-15.54207
 12
175.099999
 22
-216.499999
 32
-15.54207
 13
175.099999
 23
-216.499999
 33
-15.04207
  0
3DFACE
  5
11D
330
1F
100
AcDbEntity
  8
2
  6
Continuous
 62
     9
370
    25
100
AcDbFace
 10
175.099999
 20
-216.499999
 30
-15.04207
 11
175.099999
 21
-216.499999
 31
-15.54207
 12
175.099999
 22
216.499999
 32
-15.54207
 13
175.099999
 23
216.499999
 33
-15.04207
  0
LINE
  5
11E
330
1F
100
AcDbEntity
  8
2
  6
Continuous
 62
    60
370
    25
100
AcDbLine
 10
175.1
 20
-216.5
 30
-15.54207
 11
175.1
 21
-216.5
 31
-15.04207
  0
LINE
  5
11F
330
1F
100
AcDbEntity
  8
2
  6
Continuous
 62
    60
370
    25
100
AcDbLine
 10
175.1
 20
216.5
 30
-15.54207
 11
175.1
 21
216.5
 31
-15.04207
  0
LINE
  5
120
330
1F
100
AcDbEntity
  8
2
  6
Continuous
 62
    60
370
    25
100
AcDbLine
 10
1.5
 20
-216.5
 30
-15.54207
 11
1.5
 21
-216.5
 31
-15.04207
  0
LINE
  5
121
330
1F
100
AcDbEntity
  8
2
  6
Continuous
 62
    60
370
    25
100
AcDbLine
 10
1.5
 20
216.5
 30
-15.54207
 11
1.5
 21
216.5
 31
-15.04207
  0
LINE
  5
122
330
1F
100
AcDbEntity
  8
2
  6
Continuous
 62
    60
370
    25
100
AcDbLine
 10
175.1
 20
216.5
 30
-15.54207
 11
1.5
 21
216.5
 31
-15.54207
  0
LINE
  5
123
330
1F
100
AcDbEntity
  8
2
  6
Continuous
 62
    60
370
    25
100
AcDbLine
 10
1.5
 20
-216.5
 30
-15.54207
 11
175.1
 21
-216.5
 31
-15.54207
  0
LINE
  5
124
330
1F
100
AcDbEntity
  8
2
  6
Continuous
 62
    60
370
    25
100
AcDbLine
 10
175.1
 20
-216.5
 30
-15.54207
 11
175.1
 21
216.5
 31
-15.54207
  0
LINE
  5
125
330
1F
100
AcDbEntity
  8
2
  6
Continuous
 62
    60
370
    25
100
AcDbLine
 10
1.5
 20
216.5
 30
-15.54207
 11
1.5
 21
-216.5
 31
-15.54207
  0
LINE
  5
126
330
1F
100
AcDbEntity
  8
2
  6
Continuous
 62
    60
370
    25
100
AcDbLine
 10
1.5
 20
-216.5
 30
-15.04207
 11
175.1
 21
-216.5
 31
-15.04207
  0
LINE
  5
127
330
1F
100
AcDbEntity
  8
2
  6
Continuous
 62
    60
370
    25
100
AcDbLine
 10
1.5
 20
216.5
 30
-15.04207
 11
1.5
 21
-216.5
 31
-15.04207
  0
LINE
  5
128
330
1F
100
AcDbEntity
  8
2
  6
Continuous
 62
    60
370
    25
100
AcDbLine
 10
175.1
 20
216.5
 30
-15.04207
 11
1.5
 21
216.5
 31
-15.04207
  0
LINE
  5
129
330
1F
100
AcDbEntity
  8
2
  6
Continuous
 62
    60
370
    25
100
AcDbLine
 10
175.1
 20
-216.5
 30
-15.04207
 11
175.1
 21
216.5
 31
-15.04207
  0
ENDSEC
  0
SECTION
  2
OBJECTS
  0
DICTIONARY
  5
C
330
0
100
AcDbDictionary
281
     1
  3
ACAD_DETAILVIEWSTYLE
350
147
  3
ACAD_GROUP
350
D
  3
ACAD_LAYOUT
350
1A
  3
ACAD_MATERIAL
350
43
  3
ACAD_MLEADERSTYLE
350
146
  3
ACAD_MLINESTYLE
350
17
  3
ACAD_PLOTSETTINGS
350
19
  3
ACAD_PLOTSTYLENAME
350
E
  3
ACAD_SCALELIST
350
47
  3
ACAD_SECTIONVIEWSTYLE
350
148
  3
ACAD_TABLESTYLE
350
145
  3
ACAD_VISUALSTYLE
350
2A
  3
AcDbVariableDictionary
350
143
  0
SUN
  5
69
330
29
100
AcDbSun
 90
        1
290
     0
 63
     7
421
 16777215
 40
1.0
291
     1
 91
  2455826
 92
 54000000
292
     0
 70
     2
 71
   256
280
     1
  0
SUN
  5
133
330
132
100
AcDbSun
 90
        1
290
     0
 63
     7
421
 16777215
 40
1.0
291
     1
 91
  2455826
 92
 54000000
292
     0
 70
     2
 71
   256
280
     1
  0
DICTIONARY
  5
147
102
{ACAD_REACTORS
330
C
102
}
330
C
100
AcDbDictionary
281
     1
  0
DICTIONARY
  5
D
102
{ACAD_REACTORS
330
C
102
}
330
C
100
AcDbDictionary
281
     1
  0
DICTIONARY
  5
1A
102
{ACAD_REACTORS
330
C
102
}
330
C
100
AcDbDictionary
281
     1
  3
Layout1
350
1E
  3
Layout2
350
26
  3
Model
350
22
  0
DICTIONARY
  5
43
102
{ACAD_REACTORS
330
C
102
}
330
C
100
AcDbDictionary
281
     1
  3
ByBlock
350
45
  3
ByLayer
350
44
  3
Global
350
46
  0
DICTIONARY
  5
146
102
{ACAD_REACTORS
330
C
102
}
330
C
100
AcDbDictionary
281
     1
  0
DICTIONARY
  5
17
102
{ACAD_REACTORS
330
C
102
}
330
C
100
AcDbDictionary
281
     1
  3
Standard
350
18
  0
DICTIONARY
  5
19
102
{ACAD_REACTORS
330
C
102
}
330
C
100
AcDbDictionary
281
     1
  0
ACDBDICTIONARYWDFLT
  5
E
102
{ACAD_REACTORS
330
C
102
}
330
C
100
AcDbDictionary
281
     1
  3
Normal
350
F
100
AcDbDictionaryWithDefault
340
F
  0
DICTIONARY
  5
47
102
{ACAD_REACTORS
330
C
102
}
330
C
100
AcDbDictionary
281
     1
  3
A0
350
48
  3
A1
350
49
  3
A2
350
4A
  3
A3
350
4B
  3
A4
350
4C
  3
A5
350
4D
  3
A6
350
4E
  3
A7
350
4F
  3
A8
350
50
  3
A9
350
51
  3
B0
350
52
  3
B1
350
53
  3
B2
350
54
  3
B3
350
55
  3
B4
350
56
  3
B5
350
57
  3
B6
350
58
  3
B7
350
59
  3
B8
350
5A
  3
B9
350
5B
  3
C0
350
5C
  3
C1
350
5D
  3
C2
350
5E
  3
C3
350
5F
  3
C4
350
60
  3
C5
350
61
  3
C6
350
62
  3
C7
350
63
  3
C8
350
64
  3
C9
350
65
  3
D0
350
66
  3
D1
350
67
  3
D2
350
68
  0
DICTIONARY
  5
148
102
{ACAD_REACTORS
330
C
102
}
330
C
100
AcDbDictionary
281
     1
  0
DICTIONARY
  5
145
102
{ACAD_REACTORS
330
C
102
}
330
C
100
AcDbDictionary
281
     1
  0
DICTIONARY
  5
2A
102
{ACAD_REACTORS
330
C
102
}
330
C
100
AcDbDictionary
281
     1
  3
2dWireframe
350
2F
  3
Basic
350
32
  3
Brighten
350
36
  3
ColorChange
350
3A
  3
Conceptual
350
34
  3
Dim
350
35
  3
EdgeColorOff
350
3D
  3
Facepattern
350
39
  3
Flat
350
2B
  3
FlatWithEdges
350
2C
  3
Gouraud
350
2D
  3
GouraudWithEdges
350
2E
  3
Hidden
350
31
  3
JitterOff
350
3B
  3
Linepattern
350
38
  3
OverhangOff
350
3C
  3
Realistic
350
33
  3
Shaded
350
42
  3
Shaded with edges
350
41
  3
Shades of Gray
350
3E
  3
Sketchy
350
3F
  3
Thicken
350
37
  3
Wireframe
350
30
  3
X-Ray
350
40
  0
DICTIONARY
  5
143
102
{ACAD_REACTORS
330
C
102
}
330
C
100
AcDbDictionary
281
     1
  3
CANNOSCALE
350
144
  0
LAYOUT
  5
1E
102
{ACAD_REACTORS
330
1A
102
}
330
1A
100
AcDbPlotSettings
  1

  2
none_device
  4

  6

 40
0.0
 41
0.0
 42
0.0
 43
0.0
 44
0.0
 45
0.0
 46
0.0
 47
0.0
 48
0.0
 49
0.0
140
0.0
141
0.0
142
1.0
143
1.0
 70
   688
 72
     0
 73
     0
 74
     5
  7

 75
    16
 76
     0
 77
     2
 78
   300
147
1.0
148
0.0
149
0.0
100
AcDbLayout
  1
Layout1
 70
     1
 71
     1
 10
-0.5
 20
-0.5
 11
5.0
 21
5.0
 12
0.0
 22
0.0
 32
0.0
 14
-0.5
 24
-0.5
 34
-0.5
 15
5.0
 25
5.0
 35
5.0
146
0.0
 13
0.0
 23
0.0
 33
0.0
 16
1.0
 26
0.0
 36
0.0
 17
0.0
 27
1.0
 37
0.0
 76
     0
330
1B
  0
LAYOUT
  5
26
102
{ACAD_REACTORS
330
1A
102
}
330
1A
100
AcDbPlotSettings
  1

  2
none_device
  4

  6

 40
0.0
 41
0.0
 42
0.0
 43
0.0
 44
0.0
 45
0.0
 46
0.0
 47
0.0
 48
0.0
 49
0.0
140
0.0
141
0.0
142
1.0
143
1.0
 70
   688
 72
     0
 73
     0
 74
     5
  7

 75
    16
 76
     0
 77
     2
 78
   300
147
1.0
148
0.0
149
0.0
100
AcDbLayout
  1
Layout2
 70
     1
 71
     2
 10
0.0
 20
0.0
 11
0.0
 21
0.0
 12
0.0
 22
0.0
 32
0.0
 14
0.0
 24
0.0
 34
0.0
 15
0.0
 25
0.0
 35
0.0
146
0.0
 13
0.0
 23
0.0
 33
0.0
 16
1.0
 26
0.0
 36
0.0
 17
0.0
 27
1.0
 37
0.0
 76
     0
330
23
  0
LAYOUT
  5
22
102
{ACAD_REACTORS
330
1A
102
}
330
1A
100
AcDbPlotSettings
  1

  2
none_device
  4
Letter_(8.50_x_11.00_Inches)
  6

 40
6.35
 41
6.35
 42
6.350005
 43
6.350005
 44
215.9
 45
279.4
 46
0.0
 47
0.0
 48
0.0
 49
0.0
140
0.0
141
0.0
142
1.0
143
1.0
 70
  1712
 72
     0
 73
     0
 74
     0
  7

 75
     0
 76
     0
 77
     2
 78
   300
147
1.0
148
0.0
149
0.0
100
AcDbLayout
  1
Model
 70
     1
 71
     0
 10
-0.5
 20
-0.5
 11
5.0
 21
5.0
 12
0.0
 22
0.0
 32
0.0
 14
-0.5
 24
-0.5
 34
-0.5
 15
5.0
 25
5.0
 35
5.0
146
0.0
 13
0.0
 23
0.0
 33
0.0
 16
1.0
 26
0.0
 36
0.0
 17
0.0
 27
1.0
 37
0.0
 76
     0
330
1F
331
132
  0
MATERIAL
  5
45
102
{ACAD_REACTORS
330
43
102
}
330
43
100
AcDbMaterial
  1
ByBlock
 72
     1
 94
      127
  0
MATERIAL
  5
44
102
{ACAD_REACTORS
330
43
102
}
330
43
100
AcDbMaterial
  1
ByLayer
 72
     1
 94
      127
  0
MATERIAL
  5
46
102
{ACAD_REACTORS
330
43
102
}
330
43
100
AcDbMaterial
  1
Global
 72
     1
 94
      127
  0
MLINESTYLE
  5
18
102
{ACAD_REACTORS
330
17
102
}
330
17
100
AcDbMlineStyle
  2
Standard
 70
     0
  3

 62
   256
 51
90.0
 52
90.0
 71
     2
 49
0.5
 62
   256
  6
BYLAYER
 49
-0.5
 62
   256
  6
BYLAYER
  0
ACDBPLACEHOLDER
  5
F
102
{ACAD_REACTORS
330
E
102
}
330
E
  0
SCALE
  5
48
102
{ACAD_REACTORS
330
47
102
}
330
47
100
AcDbScale
 70
     0
300
1:1
140
1.0
141
1.0
290
     1
  0
SCALE
  5
49
102
{ACAD_REACTORS
330
47
102
}
330
47
100
AcDbScale
 70
     0
300
1:2
140
1.0
141
2.0
290
     0
  0
SCALE
  5
4A
102
{ACAD_REACTORS
330
47
102
}
330
47
100
AcDbScale
 70
     0
300
1:4
140
1.0
141
4.0
290
     0
  0
SCALE
  5
4B
102
{ACAD_REACTORS
330
47
102
}
330
47
100
AcDbScale
 70
     0
300
1:5
140
1.0
141
5.0
290
     0
  0
SCALE
  5
4C
102
{ACAD_REACTORS
330
47
102
}
330
47
100
AcDbScale
 70
     0
300
1:8
140
1.0
141
8.0
290
     0
  0
SCALE
  5
4D
102
{ACAD_REACTORS
330
47
102
}
330
47
100
AcDbScale
 70
     0
300
1:10
140
1.0
141
10.0
290
     0
  0
SCALE
  5
4E
102
{ACAD_REACTORS
330
47
102
}
330
47
100
AcDbScale
 70
     0
300
1:16
140
1.0
141
16.0
290
     0
  0
SCALE
  5
4F
102
{ACAD_REACTORS
330
47
102
}
330
47
100
AcDbScale
 70
     0
300
1:20
140
1.0
141
20.0
290
     0
  0
SCALE
  5
50
102
{ACAD_REACTORS
330
47
102
}
330
47
100
AcDbScale
 70
     0
300
1:30
140
1.0
141
30.0
290
     0
  0
SCALE
  5
51
102
{ACAD_REACTORS
330
47
102
}
330
47
100
AcDbScale
 70
     0
300
1:40
140
1.0
141
40.0
290
     0
  0
SCALE
  5
52
102
{ACAD_REACTORS
330
47
102
}
330
47
100
AcDbScale
 70
     0
300
1:50
140
1.0
141
50.0
290
     0
  0
SCALE
  5
53
102
{ACAD_REACTORS
330
47
102
}
330
47
100
AcDbScale
 70
     0
300
1:100
140
1.0
141
100.0
290
     0
  0
SCALE
  5
54
102
{ACAD_REACTORS
330
47
102
}
330
47
100
AcDbScale
 70
     0
300
2:1
140
2.0
141
1.0
290
     0
  0
SCALE
  5
55
102
{ACAD_REACTORS
330
47
102
}
330
47
100
AcDbScale
 70
     0
300
4:1
140
4.0
141
1.0
290
     0
  0
SCALE
  5
56
102
{ACAD_REACTORS
330
47
102
}
330
47
100
AcDbScale
 70
     0
300
8:1
140
8.0
141
1.0
290
     0
  0
SCALE
  5
57
102
{ACAD_REACTORS
330
47
102
}
330
47
100
AcDbScale
 70
     0
300
10:1
140
10.0
141
1.0
290
     0
  0
SCALE
  5
58
102
{ACAD_REACTORS
330
47
102
}
330
47
100
AcDbScale
 70
     0
300
100:1
140
100.0
141
1.0
290
     0
  0
SCALE
  5
59
102
{ACAD_REACTORS
330
47
102
}
330
47
100
AcDbScale
 70
     0
300
1/128" = 1'-0"
140
0.007812
141
12.0
290
     0
  0
SCALE
  5
5A
102
{ACAD_REACTORS
330
47
102
}
330
47
100
AcDbScale
 70
     0
300
1/64" = 1'-0"
140
0.015625
141
12.0
290
     0
  0
SCALE
  5
5B
102
{ACAD_REACTORS
330
47
102
}
330
47
100
AcDbScale
 70
     0
300
1/32" = 1'-0"
140
0.03125
141
12.0
290
     0
  0
SCALE
  5
5C
102
{ACAD_REACTORS
330
47
102
}
330
47
100
AcDbScale
 70
     0
300
1/16" = 1'-0"
140
0.0625
141
12.0
290
     0
  0
SCALE
  5
5D
102
{ACAD_REACTORS
330
47
102
}
330
47
100
AcDbScale
 70
     0
300
3/32" = 1'-0"
140
0.09375
141
12.0
290
     0
  0
SCALE
  5
5E
102
{ACAD_REACTORS
330
47
102
}
330
47
100
AcDbScale
 70
     0
300
1/8" = 1'-0"
140
0.125
141
12.0
290
     0
  0
SCALE
  5
5F
102
{ACAD_REACTORS
330
47
102
}
330
47
100
AcDbScale
 70
     0
300
3/16" = 1'-0"
140
0.1875
141
12.0
290
     0
  0
SCALE
  5
60
102
{ACAD_REACTORS
330
47
102
}
330
47
100
AcDbScale
 70
     0
300
1/4" = 1'-0"
140
0.25
141
12.0
290
     0
  0
SCALE
  5
61
102
{ACAD_REACTORS
330
47
102
}
330
47
100
AcDbScale
 70
     0
300
3/8" = 1'-0"
140
0.375
141
12.0
290
     0
  0
SCALE
  5
62
102
{ACAD_REACTORS
330
47
102
}
330
47
100
AcDbScale
 70
     0
300
1/2" = 1'-0"
140
0.5
141
12.0
290
     0
  0
SCALE
  5
63
102
{ACAD_REACTORS
330
47
102
}
330
47
100
AcDbScale
 70
     0
300
3/4" = 1'-0"
140
0.75
141
12.0
290
     0
  0
SCALE
  5
64
102
{ACAD_REACTORS
330
47
102
}
330
47
100
AcDbScale
 70
     0
300
1" = 1'-0"
140
1.0
141
12.0
290
     0
  0
SCALE
  5
65
102
{ACAD_REACTORS
330
47
102
}
330
47
100
AcDbScale
 70
     0
300
1-1/2" = 1'-0"
140
1.5
141
12.0
290
     0
  0
SCALE
  5
66
102
{ACAD_REACTORS
330
47
102
}
330
47
100
AcDbScale
 70
     0
300
3" = 1'-0"
140
3.0
141
12.0
290
     0
  0
SCALE
  5
67
102
{ACAD_REACTORS
330
47
102
}
330
47
100
AcDbScale
 70
     0
300
6" = 1'-0"
140
6.0
141
12.0
290
     0
  0
SCALE
  5
68
102
{ACAD_REACTORS
330
47
102
}
330
47
100
AcDbScale
 70
     0
300
1'-0" = 1'-0"
140
12.0
141
12.0
290
     0
  0
VISUALSTYLE
  5
2F
102
{ACAD_REACTORS
330
2A
102
}
330
2A
100
AcDbVisualStyle
  2
2dWireframe
 70
     4
177
     3
291
     0
 70
    58
 90
        0
176
     1
 90
        2
176
     1
 90
        0
176
     1
 90
        0
176
     1
 40
0.6
176
     1
 40
30.0
176
     1
 62
     7
420
 16777215
176
     1
 90
        1
176
     1
 90
        4
176
     1
 62
     7
176
     1
 62
   257
176
     1
 90
        1
176
     1
 90
        1
176
     1
 40
1.0
176
     1
 90
        0
176
     1
 62
   257
176
     1
 40
1.0
176
     1
 90
        1
176
     1
 90
        6
176
     1
 90
        2
176
     1
 62
     7
176
     1
 90
        5
176
     1
 90
        0
176
     1
 90
        0
176
     1
290
     0
176
     1
 90
        1
176
     1
 40
0.0
176
     1
 90
        0
176
     1
290
     1
176
     1
290
     1
176
     1
290
     0
176
     1
290
     0
176
     1
290
     0
176
     1
290
     0
176
     1
290
     0
176
     1
290
     0
176
     1
290
     0
176
     1
 90
       50
176
     1
 40
0.0
176
     1
 40
1.0
176
     1
 90
        0
176
     1
 62
    18
420
        0
176
     1
 90
       50
176
     1
 90
        3
176
     1
 62
     5
420
      255
176
     1
290
     0
176
     1
 90
       50
176
     1
 90
       50
176
     1
 90
       50
176
     1
290
     0
176
     1
 90
       50
176
     1
 62
   256
176
     0
 40
1.0
176
     0
 90
        2
176
     1
  1
strokes_ogs.tif
176
     1
290
     0
176
     1
 40
1.0
176
     1
 40
1.0
176
     1
  0
VISUALSTYLE
  5
32
102
{ACAD_REACTORS
330
2A
102
}
330
2A
100
AcDbVisualStyle
  2
Basic
 70
     7
177
     3
291
     1
 70
    58
 90
        1
176
     1
 90
        0
176
     1
 90
        1
176
     1
 90
        0
176
     1
 40
0.6
176
     1
 40
30.0
176
     1
 62
     7
420
 16777215
176
     1
 90
        0
176
     1
 90
        4
176
     1
 62
     7
176
     1
 62
   257
176
     1
 90
        1
176
     1
 90
        1
176
     1
 40
1.0
176
     1
 90
        8
176
     1
 62
     7
176
     1
 40
1.0
176
     1
 90
        1
176
     1
 90
        6
176
     1
 90
        2
176
     1
 62
     7
176
     1
 90
        5
176
     1
 90
        0
176
     1
 90
        0
176
     1
290
     0
176
     1
 90
        1
176
     1
 40
0.0
176
     1
 90
        0
176
     1
290
     0
176
     1
290
     1
176
     1
290
     1
176
     1
290
     0
176
     1
290
     0
176
     1
290
     0
176
     1
290
     0
176
     1
290
     0
176
     1
290
     0
176
     1
 90
       50
176
     1
 40
0.0
176
     1
 40
1.0
176
     1
 90
        0
176
     1
 62
    18
420
        0
176
     1
 90
       50
176
     1
 90
        3
176
     1
 62
     5
420
      255
176
     1
290
     0
176
     1
 90
       50
176
     1
 90
       50
176
     1
 90
       50
176
     1
290
     0
176
     1
 90
       50
176
     1
 62
   256
176
     0
 40
1.0
176
     0
 90
        2
176
     1
  1
strokes_ogs.tif
176
     1
290
     0
176
     1
 40
1.0
176
     1
 40
1.0
176
     1
  0
VISUALSTYLE
  5
36
102
{ACAD_REACTORS
330
2A
102
}
330
2A
100
AcDbVisualStyle
  2
Brighten
 70
    12
177
     3
291
     1
 70
    58
 90
        2
176
     1
 90
        2
176
     1
 90
        0
176
     1
 90
        0
176
     1
 40
0.6
176
     1
 40
30.0
176
     1
 62
     7
420
 16777215
176
     1
 90
        1
176
     1
 90
        4
176
     1
 62
     7
176
     1
 62
   257
176
     1
 90
        1
176
     1
 90
        1
176
     1
 40
1.0
176
     1
 90
        8
176
     1
 62
     7
176
     1
 40
1.0
176
     1
 90
        1
176
     1
 90
        6
176
     1
 90
        2
176
     1
 62
     7
176
     1
 90
        5
176
     1
 90
        0
176
     1
 90
        0
176
     1
290
     0
176
     1
 90
        1
176
     1
 40
50.0
176
     1
 90
        0
176
     1
290
     0
176
     1
290
     1
176
     1
290
     1
176
     1
290
     0
176
     1
290
     0
176
     1
290
     0
176
     1
290
     0
176
     1
290
     0
176
     1
290
     0
176
     1
 90
       50
176
     1
 40
0.0
176
     1
 40
1.0
176
     1
 90
        0
176
     1
 62
    18
420
        0
176
     1
 90
       50
176
     1
 90
        3
176
     1
 62
     5
420
      255
176
     1
290
     0
176
     1
 90
       50
176
     1
 90
       50
176
     1
 90
       50
176
     1
290
     0
176
     1
 90
       50
176
     1
 62
   256
176
     0
 40
1.0
176
     0
 90
        2
176
     1
  1
strokes_ogs.tif
176
     1
290
     0
176
     1
 40
1.0
176
     1
 40
1.0
176
     1
  0
VISUALSTYLE
  5
3A
102
{ACAD_REACTORS
330
2A
102
}
330
2A
100
AcDbVisualStyle
  2
ColorChange
 70
    16
177
     3
291
     1
 70
    58
 90
        2
176
     1
 90
        2
176
     1
 90
        3
176
     1
 90
        0
176
     1
 40
0.6
176
     1
 40
30.0
176
     1
 62
     8
420
  8421504
176
     1
 90
        1
176
     1
 90
        4
176
     1
 62
     7
176
     1
 62
   257
176
     1
 90
        1
176
     1
 90
        1
176
     1
 40
1.0
176
     1
 90
        8
176
     1
 62
     8
420
  8421504
176
     1
 40
1.0
176
     1
 90
        1
176
     1
 90
        6
176
     1
 90
        2
176
     1
 62
     7
176
     1
 90
        5
176
     1
 90
        0
176
     1
 90
        0
176
     1
290
     0
176
     1
 90
        1
176
     1
 40
0.0
176
     1
 90
        0
176
     1
290
     0
176
     1
290
     1
176
     1
290
     1
176
     1
290
     0
176
     1
290
     0
176
     1
290
     0
176
     1
290
     0
176
     1
290
     0
176
     1
290
     0
176
     1
 90
       50
176
     1
 40
0.0
176
     1
 40
1.0
176
     1
 90
        0
176
     1
 62
    18
420
        0
176
     1
 90
       50
176
     1
 90
        3
176
     1
 62
     5
420
      255
176
     1
290
     0
176
     1
 90
       50
176
     1
 90
       50
176
     1
 90
       50
176
     1
290
     0
176
     1
 90
       50
176
     1
 62
   256
176
     0
 40
1.0
176
     0
 90
        2
176
     1
  1
strokes_ogs.tif
176
     1
290
     0
176
     1
 40
1.0
176
     1
 40
1.0
176
     1
  0
VISUALSTYLE
  5
34
102
{ACAD_REACTORS
330
2A
102
}
330
2A
100
AcDbVisualStyle
  2
Conceptual
 70
     9
177
     3
291
     0
 70
    58
 90
        3
176
     1
 90
        2
176
     1
 90
        0
176
     1
 90
        0
176
     1
 40
0.6
176
     1
 40
30.0
176
     1
 62
     7
420
 16777215
176
     1
 90
        2
176
     1
 90
        2
176
     1
 62
     7
176
     1
 62
   257
176
     1
 90
        1
176
     1
 90
        1
176
     1
 40
179.0
176
     1
 90
        8
176
     1
 62
     7
176
     1
 40
1.0
176
     1
 90
        1
176
     1
 90
        6
176
     1
 90
        2
176
     1
 62
     7
176
     1
 90
        3
176
     1
 90
        0
176
     1
 90
        0
176
     1
290
     0
176
     1
 90
        1
176
     1
 40
0.0
176
     1
 90
        0
176
     1
290
     0
176
     1
290
     1
176
     1
290
     1
176
     1
290
     0
176
     1
290
     0
176
     1
290
     0
176
     1
290
     0
176
     1
290
     0
176
     1
290
     0
176
     1
 90
       50
176
     1
 40
0.0
176
     1
 40
1.0
176
     1
 90
        0
176
     1
 62
    18
420
        0
176
     1
 90
       50
176
     1
 90
        3
176
     1
 62
     5
420
      255
176
     1
290
     0
176
     1
 90
       50
176
     1
 90
       50
176
     1
 90
       50
176
     1
290
     0
176
     1
 90
       50
176
     1
 62
   256
176
     0
 40
1.0
176
     0
 90
        2
176
     1
  1
strokes_ogs.tif
176
     1
290
     0
176
     1
 40
1.0
176
     1
 40
1.0
176
     1
  0
VISUALSTYLE
  5
35
102
{ACAD_REACTORS
330
2A
102
}
330
2A
100
AcDbVisualStyle
  2
Dim
 70
    11
177
     3
291
     1
 70
    58
 90
        2
176
     1
 90
        2
176
     1
 90
        0
176
     1
 90
        0
176
     1
 40
0.6
176
     1
 40
30.0
176
     1
 62
     7
420
 16777215
176
     1
 90
        1
176
     1
 90
        4
176
     1
 62
     7
176
     1
 62
   257
176
     1
 90
        1
176
     1
 90
        1
176
     1
 40
1.0
176
     1
 90
        8
176
     1
 62
     7
176
     1
 40
1.0
176
     1
 90
        1
176
     1
 90
        6
176
     1
 90
        2
176
     1
 62
     7
176
     1
 90
        5
176
     1
 90
        0
176
     1
 90
        0
176
     1
290
     0
176
     1
 90
        1
176
     1
 40
-50.0
176
     1
 90
        0
176
     1
290
     0
176
     1
290
     1
176
     1
290
     1
176
     1
290
     0
176
     1
290
     0
176
     1
290
     0
176
     1
290
     0
176
     1
290
     0
176
     1
290
     0
176
     1
 90
       50
176
     1
 40
0.0
176
     1
 40
1.0
176
     1
 90
        0
176
     1
 62
    18
420
        0
176
     1
 90
       50
176
     1
 90
        3
176
     1
 62
     5
420
      255
176
     1
290
     0
176
     1
 90
       50
176
     1
 90
       50
176
     1
 90
       50
176
     1
290
     0
176
     1
 90
       50
176
     1
 62
   256
176
     0
 40
1.0
176
     0
 90
        2
176
     1
  1
strokes_ogs.tif
176
     1
290
     0
176
     1
 40
1.0
176
     1
 40
1.0
176
     1
  0
VISUALSTYLE
  5
3D
102
{ACAD_REACTORS
330
2A
102
}
330
2A
100
AcDbVisualStyle
  2
EdgeColorOff
 70
    22
177
     3
291
     1
 70
    58
 90
        2
176
     0
 90
        2
176
     0
 90
        0
176
     0
 90
        0
176
     0
 40
0.6
176
     0
 40
30.0
176
     0
 62
     7
420
 16777215
176
     0
 90
        1
176
     0
 90
        4
176
     0
 62
     7
176
     0
 62
   257
176
     0
 90
        1
176
     0
 90
        1
176
     0
 40
1.0
176
     0
 90
        8
176
     2
 62
     7
176
     0
 40
1.0
176
     0
 90
        1
176
     0
 90
        6
176
     0
 90
        2
176
     0
 62
     7
176
     0
 90
        5
176
     0
 90
        0
176
     0
 90
        0
176
     0
290
     0
176
     0
 90
        1
176
     0
 40
0.0
176
     0
 90
        0
176
     0
290
     0
176
     0
290
     1
176
     0
290
     1
176
     0
290
     0
176
     0
290
     0
176
     0
290
     0
176
     0
290
     0
176
     0
290
     0
176
     0
290
     0
176
     0
 90
       50
176
     0
 40
0.0
176
     0
 40
1.0
176
     0
 90
        0
176
     0
 62
    18
420
        0
176
     0
 90
       50
176
     0
 90
        3
176
     0
 62
     5
420
      255
176
     0
290
     0
176
     0
 90
       50
176
     0
 90
       50
176
     0
 90
       50
176
     0
290
     0
176
     0
 90
       50
176
     0
 62
   256
176
     0
 40
1.0
176
     0
 90
        2
176
     0
  1
strokes_ogs.tif
176
     0
290
     0
176
     0
 40
1.0
176
     0
 40
1.0
176
     0
  0
VISUALSTYLE
  5
39
102
{ACAD_REACTORS
330
2A
102
}
330
2A
100
AcDbVisualStyle
  2
Facepattern
 70
    15
177
     3
291
     1
 70
    58
 90
        2
176
     1
 90
        2
176
     1
 90
        0
176
     1
 90
        0
176
     1
 40
0.6
176
     1
 40
30.0
176
     1
 62
     7
420
 16777215
176
     1
 90
        1
176
     1
 90
        4
176
     1
 62
     7
176
     1
 62
   257
176
     1
 90
        1
176
     1
 90
        1
176
     1
 40
1.0
176
     1
 90
        8
176
     1
 62
     7
176
     1
 40
1.0
176
     1
 90
        1
176
     1
 90
        6
176
     1
 90
        2
176
     1
 62
     7
176
     1
 90
        5
176
     1
 90
        0
176
     1
 90
        0
176
     1
290
     0
176
     1
 90
        1
176
     1
 40
0.0
176
     1
 90
        0
176
     1
290
     0
176
     1
290
     1
176
     1
290
     1
176
     1
290
     0
176
     1
290
     0
176
     1
290
     0
176
     1
290
     0
176
     1
290
     0
176
     1
290
     0
176
     1
 90
       50
176
     1
 40
0.0
176
     1
 40
1.0
176
     1
 90
        0
176
     1
 62
    18
420
        0
176
     1
 90
       50
176
     1
 90
        3
176
     1
 62
     5
420
      255
176
     1
290
     0
176
     1
 90
       50
176
     1
 90
       50
176
     1
 90
       50
176
     1
290
     0
176
     1
 90
       50
176
     1
 62
   256
176
     0
 40
1.0
176
     0
 90
        2
176
     1
  1
strokes_ogs.tif
176
     1
290
     0
176
     1
 40
1.0
176
     1
 40
1.0
176
     1
  0
VISUALSTYLE
  5
2B
102
{ACAD_REACTORS
330
2A
102
}
330
2A
100
AcDbVisualStyle
  2
Flat
 70
     0
177
     3
291
     1
 70
    58
 90
        2
176
     1
 90
        1
176
     1
 90
        1
176
     1
 90
        2
176
     1
 40
0.6
176
     1
 40
30.0
176
     1
 62
     7
420
 16777215
176
     1
 90
        0
176
     1
 90
        0
176
     1
 62
     7
176
     1
 62
   257
176
     1
 90
        1
176
     1
 90
        1
176
     1
 40
1.0
176
     1
 90
        8
176
     1
 62
     7
176
     1
 40
1.0
176
     1
 90
        1
176
     1
 90
        6
176
     1
 90
        2
176
     1
 62
     7
176
     1
 90
        5
176
     1
 90
        0
176
     1
 90
        0
176
     1
290
     0
176
     1
 90
       13
176
     1
 40
0.0
176
     1
 90
        0
176
     1
290
     0
176
     1
290
     1
176
     1
290
     1
176
     1
290
     0
176
     1
290
     0
176
     1
290
     0
176
     1
290
     0
176
     1
290
     0
176
     1
290
     0
176
     1
 90
       50
176
     1
 40
0.0
176
     1
 40
1.0
176
     1
 90
        0
176
     1
 62
    18
420
        0
176
     1
 90
       50
176
     1
 90
        3
176
     1
 62
     5
420
      255
176
     1
290
     0
176
     1
 90
       50
176
     1
 90
       50
176
     1
 90
       50
176
     1
290
     0
176
     1
 90
       50
176
     1
 62
   256
176
     0
 40
1.0
176
     0
 90
        2
176
     1
  1
strokes_ogs.tif
176
     1
290
     0
176
     1
 40
1.0
176
     1
 40
1.0
176
     1
  0
VISUALSTYLE
  5
2C
102
{ACAD_REACTORS
330
2A
102
}
330
2A
100
AcDbVisualStyle
  2
FlatWithEdges
 70
     1
177
     3
291
     1
 70
    58
 90
        2
176
     1
 90
        1
176
     1
 90
        1
176
     1
 90
        2
176
     1
 40
0.6
176
     1
 40
30.0
176
     1
 62
     7
420
 16777215
176
     1
 90
        1
176
     1
 90
        0
176
     1
 62
     7
176
     1
 62
   257
176
     1
 90
        1
176
     1
 90
        1
176
     1
 40
1.0
176
     1
 90
        0
176
     1
 62
   257
176
     1
 40
1.0
176
     1
 90
        1
176
     1
 90
        6
176
     1
 90
        2
176
     1
 62
     7
176
     1
 90
        5
176
     1
 90
        0
176
     1
 90
        0
176
     1
290
     0
176
     1
 90
       13
176
     1
 40
0.0
176
     1
 90
        0
176
     1
290
     0
176
     1
290
     1
176
     1
290
     1
176
     1
290
     0
176
     1
290
     0
176
     1
290
     0
176
     1
290
     0
176
     1
290
     0
176
     1
290
     0
176
     1
 90
       50
176
     1
 40
0.0
176
     1
 40
1.0
176
     1
 90
        0
176
     1
 62
    18
420
        0
176
     1
 90
       50
176
     1
 90
        3
176
     1
 62
     5
420
      255
176
     1
290
     0
176
     1
 90
       50
176
     1
 90
       50
176
     1
 90
       50
176
     1
290
     0
176
     1
 90
       50
176
     1
 62
   256
176
     0
 40
1.0
176
     0
 90
        2
176
     1
  1
strokes_ogs.tif
176
     1
290
     0
176
     1
 40
1.0
176
     1
 40
1.0
176
     1
  0
VISUALSTYLE
  5
2D
102
{ACAD_REACTORS
330
2A
102
}
330
2A
100
AcDbVisualStyle
  2
Gouraud
 70
     2
177
     3
291
     1
 70
    58
 90
        2
176
     1
 90
        2
176
     1
 90
        1
176
     1
 90
        2
176
     1
 40
0.6
176
     1
 40
30.0
176
     1
 62
     7
420
 16777215
176
     1
 90
        0
176
     1
 90
        0
176
     1
 62
     7
176
     1
 62
   257
176
     1
 90
        1
176
     1
 90
        1
176
     1
 40
1.0
176
     1
 90
        0
176
     1
 62
     7
176
     1
 40
1.0
176
     1
 90
        1
176
     1
 90
        6
176
     1
 90
        2
176
     1
 62
     7
176
     1
 90
        5
176
     1
 90
        0
176
     1
 90
        0
176
     1
290
     0
176
     1
 90
       13
176
     1
 40
0.0
176
     1
 90
        0
176
     1
290
     0
176
     1
290
     1
176
     1
290
     1
176
     1
290
     0
176
     1
290
     0
176
     1
290
     0
176
     1
290
     0
176
     1
290
     0
176
     1
290
     0
176
     1
 90
       50
176
     1
 40
0.0
176
     1
 40
1.0
176
     1
 90
        0
176
     1
 62
    18
420
        0
176
     1
 90
       50
176
     1
 90
        3
176
     1
 62
     5
420
      255
176
     1
290
     0
176
     1
 90
       50
176
     1
 90
       50
176
     1
 90
       50
176
     1
290
     0
176
     1
 90
       50
176
     1
 62
   256
176
     0
 40
1.0
176
     0
 90
        2
176
     1
  1
strokes_ogs.tif
176
     1
290
     0
176
     1
 40
1.0
176
     1
 40
1.0
176
     1
  0
VISUALSTYLE
  5
2E
102
{ACAD_REACTORS
330
2A
102
}
330
2A
100
AcDbVisualStyle
  2
GouraudWithEdges
 70
     3
177
     3
291
     1
 70
    58
 90
        2
176
     1
 90
        2
176
     1
 90
        1
176
     1
 90
        2
176
     1
 40
0.6
176
     1
 40
30.0
176
     1
 62
     7
420
 16777215
176
     1
 90
        1
176
     1
 90
        0
176
     1
 62
     7
176
     1
 62
   257
176
     1
 90
        1
176
     1
 90
        1
176
     1
 40
1.0
176
     1
 90
        0
176
     1
 62
   257
176
     1
 40
1.0
176
     1
 90
        1
176
     1
 90
        6
176
     1
 90
        2
176
     1
 62
     7
176
     1
 90
        5
176
     1
 90
        0
176
     1
 90
        0
176
     1
290
     0
176
     1
 90
       13
176
     1
 40
0.0
176
     1
 90
        0
176
     1
290
     0
176
     1
290
     1
176
     1
290
     1
176
     1
290
     0
176
     1
290
     0
176
     1
290
     0
176
     1
290
     0
176
     1
290
     0
176
     1
290
     0
176
     1
 90
       50
176
     1
 40
0.0
176
     1
 40
1.0
176
     1
 90
        0
176
     1
 62
    18
420
        0
176
     1
 90
       50
176
     1
 90
        3
176
     1
 62
     5
420
      255
176
     1
290
     0
176
     1
 90
       50
176
     1
 90
       50
176
     1
 90
       50
176
     1
290
     0
176
     1
 90
       50
176
     1
 62
   256
176
     0
 40
1.0
176
     0
 90
        2
176
     1
  1
strokes_ogs.tif
176
     1
290
     0
176
     1
 40
1.0
176
     1
 40
1.0
176
     1
  0
VISUALSTYLE
  5
31
102
{ACAD_REACTORS
330
2A
102
}
330
2A
100
AcDbVisualStyle
  2
Hidden
 70
     6
177
     3
291
     0
 70
    58
 90
        1
176
     1
 90
        2
176
     1
 90
        2
176
     1
 90
        0
176
     1
 40
0.6
176
     1
 40
30.0
176
     1
 62
     7
420
 16777215
176
     1
 90
        2
176
     1
 90
        2
176
     1
 62
     7
176
     1
 62
   257
176
     1
 90
        2
176
     1
 90
        1
176
     1
 40
40.0
176
     1
 90
        0
176
     1
 62
   257
176
     1
 40
1.0
176
     1
 90
        1
176
     1
 90
        6
176
     1
 90
        2
176
     1
 62
     7
176
     1
 90
        3
176
     1
 90
        0
176
     1
 90
        0
176
     1
290
     0
176
     1
 90
        1
176
     1
 40
0.0
176
     1
 90
        0
176
     1
290
     0
176
     1
290
     1
176
     1
290
     1
176
     1
290
     0
176
     1
290
     0
176
     1
290
     0
176
     1
290
     0
176
     1
290
     0
176
     1
290
     0
176
     1
 90
       50
176
     1
 40
0.0
176
     1
 40
1.0
176
     1
 90
        0
176
     1
 62
    18
420
        0
176
     1
 90
       50
176
     1
 90
        3
176
     1
 62
     5
420
      255
176
     1
290
     0
176
     1
 90
       50
176
     1
 90
       50
176
     1
 90
       50
176
     1
290
     0
176
     1
 90
       50
176
     1
 62
   256
176
     0
 40
1.0
176
     0
 90
        2
176
     1
  1
strokes_ogs.tif
176
     1
290
     0
176
     1
 40
1.0
176
     1
 40
1.0
176
     1
  0
VISUALSTYLE
  5
3B
102
{ACAD_REACTORS
330
2A
102
}
330
2A
100
AcDbVisualStyle
  2
JitterOff
 70
    20
177
     3
291
     1
 70
    58
 90
        2
176
     0
 90
        2
176
     0
 90
        0
176
     0
 90
        0
176
     0
 40
0.6
176
     0
 40
30.0
176
     0
 62
     7
420
 16777215
176
     0
 90
        1
176
     0
 90
        4
176
     0
 62
     7
176
     0
 62
   257
176
     0
 90
        1
176
     0
 90
        1
176
     0
 40
1.0
176
     0
 90
       10
176
     2
 62
     7
176
     0
 40
1.0
176
     0
 90
        1
176
     0
 90
        6
176
     0
 90
        2
176
     0
 62
     7
176
     0
 90
        5
176
     0
 90
        0
176
     0
 90
        0
176
     0
290
     0
176
     0
 90
        1
176
     0
 40
0.0
176
     0
 90
        0
176
     0
290
     0
176
     0
290
     1
176
     0
290
     1
176
     0
290
     0
176
     0
290
     0
176
     0
290
     0
176
     0
290
     0
176
     0
290
     0
176
     0
290
     0
176
     0
 90
       50
176
     0
 40
0.0
176
     0
 40
1.0
176
     0
 90
        0
176
     0
 62
    18
420
        0
176
     0
 90
       50
176
     0
 90
        3
176
     0
 62
     5
420
      255
176
     0
290
     0
176
     0
 90
       50
176
     0
 90
       50
176
     0
 90
       50
176
     0
290
     0
176
     0
 90
       50
176
     0
 62
   256
176
     0
 40
1.0
176
     0
 90
        2
176
     0
  1
strokes_ogs.tif
176
     0
290
     0
176
     0
 40
1.0
176
     0
 40
1.0
176
     0
  0
VISUALSTYLE
  5
38
102
{ACAD_REACTORS
330
2A
102
}
330
2A
100
AcDbVisualStyle
  2
Linepattern
 70
    14
177
     3
291
     1
 70
    58
 90
        2
176
     1
 90
        2
176
     1
 90
        0
176
     1
 90
        0
176
     1
 40
0.6
176
     1
 40
30.0
176
     1
 62
     7
420
 16777215
176
     1
 90
        1
176
     1
 90
        4
176
     1
 62
     7
176
     1
 62
   257
176
     1
 90
        7
176
     1
 90
        7
176
     1
 40
1.0
176
     1
 90
        8
176
     1
 62
     7
176
     1
 40
1.0
176
     1
 90
        1
176
     1
 90
        6
176
     1
 90
        2
176
     1
 62
     7
176
     1
 90
        5
176
     1
 90
        0
176
     1
 90
        0
176
     1
290
     0
176
     1
 90
        1
176
     1
 40
0.0
176
     1
 90
        0
176
     1
290
     0
176
     1
290
     1
176
     1
290
     1
176
     1
290
     0
176
     1
290
     0
176
     1
290
     0
176
     1
290
     0
176
     1
290
     0
176
     1
290
     0
176
     1
 90
       50
176
     1
 40
0.0
176
     1
 40
1.0
176
     1
 90
        0
176
     1
 62
    18
420
        0
176
     1
 90
       50
176
     1
 90
        3
176
     1
 62
     5
420
      255
176
     1
290
     0
176
     1
 90
       50
176
     1
 90
       50
176
     1
 90
       50
176
     1
290
     0
176
     1
 90
       50
176
     1
 62
   256
176
     0
 40
1.0
176
     0
 90
        2
176
     1
  1
strokes_ogs.tif
176
     1
290
     0
176
     1
 40
1.0
176
     1
 40
1.0
176
     1
  0
VISUALSTYLE
  5
3C
102
{ACAD_REACTORS
330
2A
102
}
330
2A
100
AcDbVisualStyle
  2
OverhangOff
 70
    21
177
     3
291
     1
 70
    58
 90
        2
176
     0
 90
        2
176
     0
 90
        0
176
     0
 90
        0
176
     0
 40
0.6
176
     0
 40
30.0
176
     0
 62
     7
420
 16777215
176
     0
 90
        1
176
     0
 90
        4
176
     0
 62
     7
176
     0
 62
   257
176
     0
 90
        1
176
     0
 90
        1
176
     0
 40
1.0
176
     0
 90
        9
176
     2
 62
     7
176
     0
 40
1.0
176
     0
 90
        1
176
     0
 90
        6
176
     0
 90
        2
176
     0
 62
     7
176
     0
 90
        5
176
     0
 90
        0
176
     0
 90
        0
176
     0
290
     0
176
     0
 90
        1
176
     0
 40
0.0
176
     0
 90
        0
176
     0
290
     0
176
     0
290
     1
176
     0
290
     1
176
     0
290
     0
176
     0
290
     0
176
     0
290
     0
176
     0
290
     0
176
     0
290
     0
176
     0
290
     0
176
     0
 90
       50
176
     0
 40
0.0
176
     0
 40
1.0
176
     0
 90
        0
176
     0
 62
    18
420
        0
176
     0
 90
       50
176
     0
 90
        3
176
     0
 62
     5
420
      255
176
     0
290
     0
176
     0
 90
       50
176
     0
 90
       50
176
     0
 90
       50
176
     0
290
     0
176
     0
 90
       50
176
     0
 62
   256
176
     0
 40
1.0
176
     0
 90
        2
176
     0
  1
strokes_ogs.tif
176
     0
290
     0
176
     0
 40
1.0
176
     0
 40
1.0
176
     0
  0
VISUALSTYLE
  5
33
102
{ACAD_REACTORS
330
2A
102
}
330
2A
100
AcDbVisualStyle
  2
Realistic
 70
     8
177
     3
291
     0
 70
    58
 90
        2
176
     1
 90
        3
176
     1
 90
        0
176
     1
 90
        2
176
     1
 40
0.6
176
     1
 40
30.0
176
     1
 62
     7
420
 16777215
176
     1
 90
        0
176
     1
 90
        0
176
     1
 62
     7
176
     1
 62
   257
176
     1
 90
        1
176
     1
 90
        1
176
     1
 40
1.0
176
     1
 90
        8
176
     1
 62
   257
176
     1
 40
1.0
176
     1
 90
        1
176
     1
 90
        6
176
     1
 90
        2
176
     1
 62
     7
176
     1
 90
        3
176
     1
 90
        0
176
     1
 90
        0
176
     1
290
     0
176
     1
 90
       13
176
     1
 40
0.0
176
     1
 90
        0
176
     1
290
     0
176
     1
290
     1
176
     1
290
     1
176
     1
290
     0
176
     1
290
     0
176
     1
290
     0
176
     1
290
     0
176
     1
290
     0
176
     1
290
     0
176
     1
 90
       50
176
     1
 40
0.0
176
     1
 40
1.0
176
     1
 90
        0
176
     1
 62
    18
420
        0
176
     1
 90
       50
176
     1
 90
        3
176
     1
 62
     5
420
      255
176
     1
290
     0
176
     1
 90
       50
176
     1
 90
       50
176
     1
 90
       50
176
     1
290
     0
176
     1
 90
       50
176
     1
 62
   256
176
     0
 40
1.0
176
     0
 90
        2
176
     1
  1
strokes_ogs.tif
176
     1
290
     0
176
     1
 40
1.0
176
     1
 40
1.0
176
     1
  0
VISUALSTYLE
  5
42
102
{ACAD_REACTORS
330
2A
102
}
330
2A
100
AcDbVisualStyle
  2
Shaded
 70
    27
177
     3
291
     0
 70
    58
 90
        2
176
     1
 90
        2
176
     1
 90
        1
176
     1
 90
        2
176
     1
 40
0.6
176
     1
 40
30.0
176
     1
 62
     7
420
 16777215
176
     1
 90
        0
176
     1
 90
        4
176
     1
 62
     7
176
     1
 62
   257
176
     1
 90
        1
176
     1
 90
        1
176
     1
 40
1.0
176
     1
 90
        8
176
     1
 62
   257
176
     1
 40
1.0
176
     1
 90
        1
176
     1
 90
        6
176
     1
 90
        2
176
     1
 62
     8
420
  7895160
176
     1
 90
        3
176
     1
 90
        0
176
     1
 90
        0
176
     1
290
     0
176
     1
 90
        5
176
     1
 40
0.0
176
     1
 90
        0
176
     1
290
     0
176
     1
290
     1
176
     1
290
     1
176
     1
290
     0
176
     1
290
     0
176
     1
290
     0
176
     1
290
     0
176
     1
290
     0
176
     1
290
     0
176
     1
 90
       50
176
     1
 40
0.0
176
     1
 40
1.0
176
     1
 90
        0
176
     1
 62
    18
420
        0
176
     1
 90
       50
176
     1
 90
        3
176
     1
 62
     5
420
      255
176
     1
290
     0
176
     1
 90
       50
176
     1
 90
       50
176
     1
 90
       50
176
     1
290
     0
176
     1
 90
       50
176
     1
 62
   256
176
     0
 40
1.0
176
     0
 90
        2
176
     1
  1
strokes_ogs.tif
176
     1
290
     0
176
     1
 40
1.0
176
     1
 40
1.0
176
     1
  0
VISUALSTYLE
  5
41
102
{ACAD_REACTORS
330
2A
102
}
330
2A
100
AcDbVisualStyle
  2
Shaded with edges
 70
    26
177
     3
291
     0
 70
    58
 90
        2
176
     1
 90
        2
176
     1
 90
        1
176
     1
 90
        2
176
     1
 40
0.6
176
     1
 40
30.0
176
     1
 62
     7
420
 16777215
176
     1
 90
        1
176
     1
 90
       10
176
     1
 62
     7
176
     1
 62
   257
176
     1
 90
        2
176
     1
 90
        1
176
     1
 40
1.0
176
     1
 90
        8
176
     1
 62
   257
176
     1
 40
1.0
176
     1
 90
        1
176
     1
 90
        6
176
     1
 90
        2
176
     1
 62
     7
176
     1
 90
        3
176
     1
 90
        0
176
     1
 90
        0
176
     1
290
     0
176
     1
 90
        5
176
     1
 40
0.0
176
     1
 90
        0
176
     1
290
     0
176
     1
290
     1
176
     1
290
     1
176
     1
290
     0
176
     1
290
     0
176
     1
290
     0
176
     1
290
     0
176
     1
290
     0
176
     1
290
     0
176
     1
 90
       50
176
     1
 40
0.0
176
     1
 40
1.0
176
     1
 90
        0
176
     1
 62
    18
420
        0
176
     1
 90
       50
176
     1
 90
        3
176
     1
 62
     5
420
      255
176
     1
290
     0
176
     1
 90
       50
176
     1
 90
       50
176
     1
 90
       50
176
     1
290
     0
176
     1
 90
       50
176
     1
 62
   256
176
     0
 40
1.0
176
     0
 90
        2
176
     1
  1
strokes_ogs.tif
176
     1
290
     0
176
     1
 40
1.0
176
     1
 40
1.0
176
     1
  0
VISUALSTYLE
  5
3E
102
{ACAD_REACTORS
330
2A
102
}
330
2A
100
AcDbVisualStyle
  2
Shades of Gray
 70
    23
177
     3
291
     0
 70
    58
 90
        2
176
     1
 90
        2
176
     1
 90
        3
176
     1
 90
        0
176
     1
 40
0.6
176
     1
 40
30.0
176
     1
 62
     7
420
 16777215
176
     1
 90
        2
176
     1
 90
        2
176
     1
 62
     7
176
     1
 62
     7
176
     1
 90
        1
176
     1
 90
        1
176
     1
 40
40.0
176
     1
 90
        8
176
     1
 62
     7
176
     1
 40
1.0
176
     1
 90
        1
176
     1
 90
        6
176
     1
 90
        2
176
     1
 62
     7
176
     1
 90
        3
176
     1
 90
        0
176
     1
 90
        0
176
     1
290
     0
176
     1
 90
        1
176
     1
 40
0.0
176
     1
 90
        0
176
     1
290
     0
176
     1
290
     1
176
     1
290
     1
176
     1
290
     0
176
     1
290
     0
176
     1
290
     0
176
     1
290
     0
176
     1
290
     0
176
     1
290
     0
176
     1
 90
       50
176
     1
 40
0.0
176
     1
 40
1.0
176
     1
 90
        0
176
     1
 62
    18
420
        0
176
     1
 90
       50
176
     1
 90
        3
176
     1
 62
     5
420
      255
176
     1
290
     0
176
     1
 90
       50
176
     1
 90
       50
176
     1
 90
       50
176
     1
290
     0
176
     1
 90
       50
176
     1
 62
   256
176
     0
 40
1.0
176
     0
 90
        2
176
     1
  1
strokes_ogs.tif
176
     1
290
     0
176
     1
 40
1.0
176
     1
 40
1.0
176
     1
  0
VISUALSTYLE
  5
3F
102
{ACAD_REACTORS
330
2A
102
}
330
2A
100
AcDbVisualStyle
  2
Sketchy
 70
    24
177
     3
291
     0
 70
    58
 90
        1
176
     1
 90
        2
176
     1
 90
        2
176
     1
 90
        0
176
     1
 40
0.6
176
     1
 40
30.0
176
     1
 62
     7
420
 16777215
176
     1
 90
        2
176
     1
 90
        2
176
     1
 62
     7
176
     1
 62
     7
176
     1
 90
        1
176
     1
 90
        1
176
     1
 40
40.0
176
     1
 90
       11
176
     1
 62
     7
176
     1
 40
1.0
176
     1
 90
        1
176
     1
 90
        6
176
     1
 90
        2
176
     1
 62
     7
176
     1
 90
        6
176
     1
 90
        0
176
     1
 90
        0
176
     1
290
     0
176
     1
 90
        1
176
     1
 40
0.0
176
     1
 90
        0
176
     1
290
     0
176
     1
290
     1
176
     1
290
     1
176
     1
290
     0
176
     1
290
     0
176
     1
290
     0
176
     1
290
     0
176
     1
290
     0
176
     1
290
     0
176
     1
 90
       50
176
     1
 40
0.0
176
     1
 40
1.0
176
     1
 90
        0
176
     1
 62
    18
420
        0
176
     1
 90
       50
176
     1
 90
        3
176
     1
 62
     5
420
      255
176
     1
290
     0
176
     1
 90
       50
176
     1
 90
       50
176
     1
 90
       50
176
     1
290
     0
176
     1
 90
       50
176
     1
 62
   256
176
     0
 40
1.0
176
     0
 90
        2
176
     1
  1
strokes_ogs.tif
176
     1
290
     0
176
     1
 40
1.0
176
     1
 40
1.0
176
     1
  0
VISUALSTYLE
  5
37
102
{ACAD_REACTORS
330
2A
102
}
330
2A
100
AcDbVisualStyle
  2
Thicken
 70
    13
177
     3
291
     1
 70
    58
 90
        2
176
     1
 90
        2
176
     1
 90
        0
176
     1
 90
        0
176
     1
 40
0.6
176
     1
 40
30.0
176
     1
 62
     7
420
 16777215
176
     1
 90
        1
176
     1
 90
        4
176
     1
 62
     7
176
     1
 62
   257
176
     1
 90
        1
176
     1
 90
        1
176
     1
 40
1.0
176
     1
 90
       12
176
     1
 62
     7
176
     1
 40
1.0
176
     1
 90
        1
176
     1
 90
        6
176
     1
 90
        2
176
     1
 62
     7
176
     1
 90
        5
176
     1
 90
        0
176
     1
 90
        0
176
     1
290
     0
176
     1
 90
        1
176
     1
 40
0.0
176
     1
 90
        0
176
     1
290
     0
176
     1
290
     1
176
     1
290
     1
176
     1
290
     0
176
     1
290
     0
176
     1
290
     0
176
     1
290
     0
176
     1
290
     0
176
     1
290
     0
176
     1
 90
       50
176
     1
 40
0.0
176
     1
 40
1.0
176
     1
 90
        0
176
     1
 62
    18
420
        0
176
     1
 90
       50
176
     1
 90
        3
176
     1
 62
     5
420
      255
176
     1
290
     0
176
     1
 90
       50
176
     1
 90
       50
176
     1
 90
       50
176
     1
290
     0
176
     1
 90
       50
176
     1
 62
   256
176
     0
 40
1.0
176
     0
 90
        2
176
     1
  1
strokes_ogs.tif
176
     1
290
     0
176
     1
 40
1.0
176
     1
 40
1.0
176
     1
  0
VISUALSTYLE
  5
30
102
{ACAD_REACTORS
330
2A
102
}
330
2A
100
AcDbVisualStyle
  2
Wireframe
 70
     5
177
     3
291
     0
 70
    58
 90
        0
176
     1
 90
        2
176
     1
 90
        0
176
     1
 90
        0
176
     1
 40
0.6
176
     1
 40
30.0
176
     1
 62
     7
420
 16777215
176
     1
 90
        1
176
     1
 90
        4
176
     1
 62
     7
176
     1
 62
   257
176
     1
 90
        1
176
     1
 90
        1
176
     1
 40
1.0
176
     1
 90
        0
176
     1
 62
   257
176
     1
 40
1.0
176
     1
 90
        1
176
     1
 90
        6
176
     1
 90
        2
176
     1
 62
     7
176
     1
 90
        3
176
     1
 90
        0
176
     1
 90
        0
176
     1
290
     0
176
     1
 90
        1
176
     1
 40
0.0
176
     1
 90
        0
176
     1
290
     0
176
     1
290
     1
176
     1
290
     1
176
     1
290
     0
176
     1
290
     0
176
     1
290
     0
176
     1
290
     0
176
     1
290
     0
176
     1
290
     0
176
     1
 90
       50
176
     1
 40
0.0
176
     1
 40
1.0
176
     1
 90
        0
176
     1
 62
    18
420
        0
176
     1
 90
       50
176
     1
 90
        3
176
     1
 62
     5
420
      255
176
     1
290
     0
176
     1
 90
       50
176
     1
 90
       50
176
     1
 90
       50
176
     1
290
     0
176
     1
 90
       50
176
     1
 62
   256
176
     0
 40
1.0
176
     0
 90
        2
176
     1
  1
strokes_ogs.tif
176
     1
290
     0
176
     1
 40
1.0
176
     1
 40
1.0
176
     1
  0
VISUALSTYLE
  5
40
102
{ACAD_REACTORS
330
2A
102
}
330
2A
100
AcDbVisualStyle
  2
X-Ray
 70
    25
177
     3
291
     0
 70
    58
 90
        2
176
     1
 90
        2
176
     1
 90
        1
176
     1
 90
        1
176
     1
 40
0.5
176
     1
 40
30.0
176
     1
 62
     7
420
 16777215
176
     1
 90
        1
176
     1
 90
        0
176
     1
 62
     7
176
     1
 62
   257
176
     1
 90
        1
176
     1
 90
        1
176
     1
 40
1.0
176
     1
 90
        8
176
     1
 62
     7
176
     1
 40
1.0
176
     1
 90
        1
176
     1
 90
        6
176
     1
 90
        2
176
     1
 62
     7
176
     1
 90
        3
176
     1
 90
        0
176
     1
 90
        0
176
     1
290
     0
176
     1
 90
       13
176
     1
 40
0.0
176
     1
 90
        0
176
     1
290
     0
176
     1
290
     1
176
     1
290
     1
176
     1
290
     0
176
     1
290
     0
176
     1
290
     0
176
     1
290
     0
176
     1
290
     0
176
     1
290
     0
176
     1
 90
       50
176
     1
 40
0.0
176
     1
 40
1.0
176
     1
 90
        0
176
     1
 62
    18
420
        0
176
     1
 90
       50
176
     1
 90
        3
176
     1
 62
     5
420
      255
176
     1
290
     0
176
     1
 90
       50
176
     1
 90
       50
176
     1
 90
       50
176
     1
290
     0
176
     1
 90
       50
176
     1
 62
   256
176
     0
 40
1.0
176
     0
 90
        2
176
     1
  1
strokes_ogs.tif
176
     1
290
     0
176
     1
 40
1.0
176
     1
 40
1.0
176
     1
  0
DICTIONARYVAR
  5
144
102
{ACAD_REACTORS
330
143
102
}
330
143
100
DictionaryVariables
280
     0
  1
1:1
  0
ENDSEC
  0
EOF
